  0
SECTION
  2
HEADER
  9
$ACADVER
  1
AC1015
  9
$ACADMAINTVER
 70
    10
  9
$DWGCODEPAGE
  3
ANSI_1252
  9
$INSBASE
 10
0.0
 20
0.0
 30
0.0
  9
$EXTMIN
 10
664.4802089891641
 20
11.6743600866018
 30
0.0
  9
$EXTMAX
 10
786.7090603794378
 20
61.67436008660181
 30
0.0
  9
$LIMMIN
 10
0.0
 20
0.0
  9
$LIMMAX
 10
12.0
 20
9.0
  9
$ORTHOMODE
 70
     1
  9
$REGENMODE
 70
     1
  9
$FILLMODE
 70
     1
  9
$QTEXTMODE
 70
     0
  9
$MIRRTEXT
 70
     1
  9
$LTSCALE
 40
25.0
  9
$ATTMODE
 70
     1
  9
$TEXTSIZE
 40
5.0
  9
$TRACEWID
 40
0.05
  9
$TEXTSTYLE
  7
STANDARD
  9
$CLAYER
  8
03-KONTUR
  9
$CELTYPE
  6
BYLAYER
  9
$CECOLOR
 62
   256
  9
$CELTSCALE
 40
1.0
  9
$DISPSILH
 70
     0
  9
$DIMSCALE
 40
1.0
  9
$DIMASZ
 40
4.0
  9
$DIMEXO
 40
0.0625
  9
$DIMDLI
 40
0.0
  9
$DIMRND
 40
0.0
  9
$DIMDLE
 40
0.0
  9
$DIMEXE
 40
2.0
  9
$DIMTP
 40
1.0
  9
$DIMTM
 40
0.0
  9
$DIMTXT
 40
3.5
  9
$DIMCEN
 40
0.09
  9
$DIMTSZ
 40
0.0
  9
$DIMTOL
 70
     0
  9
$DIMLIM
 70
     0
  9
$DIMTIH
 70
     0
  9
$DIMTOH
 70
     0
  9
$DIMSE1
 70
     0
  9
$DIMSE2
 70
     0
  9
$DIMTAD
 70
     1
  9
$DIMZIN
 70
     0
  9
$DIMBLK
  1

  9
$DIMASO
 70
     1
  9
$DIMSHO
 70
     1
  9
$DIMPOST
  1

  9
$DIMAPOST
  1

  9
$DIMALT
 70
     0
  9
$DIMALTD
 70
     2
  9
$DIMALTF
 40
25.4
  9
$DIMLFAC
 40
1.0
  9
$DIMTOFL
 70
     1
  9
$DIMTVP
 40
0.0
  9
$DIMTIX
 70
     0
  9
$DIMSOXD
 70
     0
  9
$DIMSAH
 70
     0
  9
$DIMBLK1
  1

  9
$DIMBLK2
  1

  9
$DIMSTYLE
  2
STANDARD
  9
$DIMCLRD
 70
     6
  9
$DIMCLRE
 70
     6
  9
$DIMCLRT
 70
     1
  9
$DIMTFAC
 40
0.7
  9
$DIMGAP
 40
2.0
  9
$DIMJUST
 70
     0
  9
$DIMSD1
 70
     0
  9
$DIMSD2
 70
     0
  9
$DIMTOLJ
 70
     0
  9
$DIMTZIN
 70
     0
  9
$DIMALTZ
 70
     0
  9
$DIMALTTZ
 70
     0
  9
$DIMUPT
 70
     0
  9
$DIMDEC
 70
     0
  9
$DIMTDEC
 70
     0
  9
$DIMALTU
 70
     2
  9
$DIMALTTD
 70
     2
  9
$DIMTXSTY
  7
STANDARD
  9
$DIMAUNIT
 70
     0
  9
$DIMADEC
 70
     0
  9
$DIMALTRND
 40
0.0
  9
$DIMAZIN
 70
     0
  9
$DIMDSEP
 70
    46
  9
$DIMATFIT
 70
     3
  9
$DIMFRAC
 70
     0
  9
$DIMLDRBLK
  1

  9
$DIMLUNIT
 70
     2
  9
$DIMLWD
 70
    -2
  9
$DIMLWE
 70
    -2
  9
$DIMTMOVE
 70
     0
  9
$LUNITS
 70
     2
  9
$LUPREC
 70
     4
  9
$SKETCHINC
 40
0.1
  9
$FILLETRAD
 40
0.0
  9
$AUNITS
 70
     0
  9
$AUPREC
 70
     0
  9
$MENU
  1
.
  9
$ELEVATION
 40
0.0
  9
$PELEVATION
 40
0.0
  9
$THICKNESS
 40
0.0
  9
$LIMCHECK
 70
     0
  9
$CHAMFERA
 40
3.0
  9
$CHAMFERB
 40
3.0
  9
$CHAMFERC
 40
0.0
  9
$CHAMFERD
 40
0.0
  9
$SKPOLY
 70
     0
  9
$TDCREATE
 40
2450597.581444791
  9
$TDUCREATE
 40
2450597.539778125
  9
$TDUPDATE
 40
2453013.528437153
  9
$TDUUPDATE
 40
2453013.486770486
  9
$TDINDWG
 40
0.6296716551
  9
$TDUSRTIMER
 40
0.6296716551
  9
$USRTIMER
 70
     1
  9
$ANGBASE
 50
0.0
  9
$ANGDIR
 70
     0
  9
$PDMODE
 70
     0
  9
$PDSIZE
 40
0.0
  9
$PLINEWID
 40
0.0
  9
$SPLFRAME
 70
     0
  9
$SPLINETYPE
 70
     6
  9
$SPLINESEGS
 70
     8
  9
$HANDSEED
  5
324A
  9
$SURFTAB1
 70
     6
  9
$SURFTAB2
 70
     6
  9
$SURFTYPE
 70
     6
  9
$SURFU
 70
     6
  9
$SURFV
 70
     6
  9
$UCSBASE
  2

  9
$UCSNAME
  2

  9
$UCSORG
 10
0.0
 20
0.0
 30
0.0
  9
$UCSXDIR
 10
1.0
 20
0.0
 30
0.0
  9
$UCSYDIR
 10
0.0
 20
1.0
 30
0.0
  9
$UCSORTHOREF
  2

  9
$UCSORTHOVIEW
 70
     0
  9
$UCSORGTOP
 10
0.0
 20
0.0
 30
0.0
  9
$UCSORGBOTTOM
 10
0.0
 20
0.0
 30
0.0
  9
$UCSORGLEFT
 10
0.0
 20
0.0
 30
0.0
  9
$UCSORGRIGHT
 10
0.0
 20
0.0
 30
0.0
  9
$UCSORGFRONT
 10
0.0
 20
0.0
 30
0.0
  9
$UCSORGBACK
 10
0.0
 20
0.0
 30
0.0
  9
$PUCSBASE
  2

  9
$PUCSNAME
  2

  9
$PUCSORG
 10
0.0
 20
0.0
 30
0.0
  9
$PUCSXDIR
 10
1.0
 20
0.0
 30
0.0
  9
$PUCSYDIR
 10
0.0
 20
1.0
 30
0.0
  9
$PUCSORTHOREF
  2

  9
$PUCSORTHOVIEW
 70
     0
  9
$PUCSORGTOP
 10
0.0
 20
0.0
 30
0.0
  9
$PUCSORGBOTTOM
 10
0.0
 20
0.0
 30
0.0
  9
$PUCSORGLEFT
 10
0.0
 20
0.0
 30
0.0
  9
$PUCSORGRIGHT
 10
0.0
 20
0.0
 30
0.0
  9
$PUCSORGFRONT
 10
0.0
 20
0.0
 30
0.0
  9
$PUCSORGBACK
 10
0.0
 20
0.0
 30
0.0
  9
$USERI1
 70
     0
  9
$USERI2
 70
     0
  9
$USERI3
 70
     0
  9
$USERI4
 70
     0
  9
$USERI5
 70
     0
  9
$USERR1
 40
0.0
  9
$USERR2
 40
0.0
  9
$USERR3
 40
0.0
  9
$USERR4
 40
0.0
  9
$USERR5
 40
0.0
  9
$WORLDVIEW
 70
     1
  9
$SHADEDGE
 70
     3
  9
$SHADEDIF
 70
    70
  9
$TILEMODE
 70
     1
  9
$MAXACTVP
 70
    16
  9
$PINSBASE
 10
0.0
 20
0.0
 30
0.0
  9
$PLIMCHECK
 70
     0
  9
$PEXTMIN
 10
1.000000000000000E+20
 20
1.000000000000000E+20
 30
1.000000000000000E+20
  9
$PEXTMAX
 10
-1.000000000000000E+20
 20
-1.000000000000000E+20
 30
-1.000000000000000E+20
  9
$PLIMMIN
 10
0.0
 20
0.0
  9
$PLIMMAX
 10
12.0
 20
9.0
  9
$UNITMODE
 70
     0
  9
$VISRETAIN
 70
     0
  9
$PLINEGEN
 70
     0
  9
$PSLTSCALE
 70
     1
  9
$TREEDEPTH
 70
  3020
  9
$CMLSTYLE
  2
STANDARD
  9
$CMLJUST
 70
     0
  9
$CMLSCALE
 40
1.0
  9
$PROXYGRAPHICS
 70
     1
  9
$MEASUREMENT
 70
     0
  9
$CELWEIGHT
370
    -1
  9
$ENDCAPS
280
     0
  9
$JOINSTYLE
280
     0
  9
$LWDISPLAY
290
     0
  9
$INSUNITS
 70
     0
  9
$HYPERLINKBASE
  1

  9
$STYLESHEET
  1

  9
$XEDIT
290
     1
  9
$CEPSNTYPE
380
     0
  9
$PSTYLEMODE
290
     1
  9
$FINGERPRINTGUID
  2
{82C6340D-2C67-11D7-B421-0050BA12178D}
  9
$VERSIONGUID
  2
{5D811B7F-132A-4242-A6CD-3F6FB087C6D0}
  9
$EXTNAMES
290
     1
  9
$PSVPSCALE
 40
0.0
  9
$OLESTARTUP
290
     0
  0
ENDSEC
  0
SECTION
  2
CLASSES
  0
CLASS
  1
OLE2FRAME
  2
AcDbOle2Frame
  3
AutoCAD 2000
 90
    32768
280
     0
281
     1
  0
CLASS
  1
ACDBDICTIONARYWDFLT
  2
AcDbDictionaryWithDefault
  3
AutoCAD 2000
 90
        0
280
     0
281
     0
  0
CLASS
  1
ACDBPLACEHOLDER
  2
AcDbPlaceHolder
  3
AutoCAD 2000
 90
        0
280
     0
281
     0
  0
CLASS
  1
LAYOUT
  2
AcDbLayout
  3
AutoCAD 2000
 90
        0
280
     0
281
     0
  0
CLASS
  1
DICTIONARYVAR
  2
AcDbDictionaryVar
  3
AutoCAD 2000
 90
        0
280
     0
281
     0
  0
ENDSEC
  0
SECTION
  2
TABLES
  0
TABLE
  2
VPORT
  5
14F3
330
0
100
AcDbSymbolTable
 70
     3
  0
VPORT
  5
3249
330
14F3
100
AcDbSymbolTableRecord
100
AcDbViewportTableRecord
  2
*Active
 70
     0
 10
0.0
 20
0.0
 11
1.0
 21
1.0
 12
729.1834266108556
 22
36.67980749483473
 13
0.0
 23
0.0
 14
1.0
 24
1.0
 15
0.0
 25
0.0
 16
0.0
 26
0.0
 36
1.0
 17
0.0
 27
0.0
 37
0.0
 40
69.03010677905077
 41
1.887814313346228
 42
50.0
 43
0.0
 44
0.0
 50
0.0
 51
0.0
 71
     0
 72
   100
 73
     1
 74
     0
 75
     0
 76
     0
 77
     0
 78
     0
281
     0
 65
     1
110
0.0
120
0.0
130
0.0
111
1.0
121
0.0
131
0.0
112
0.0
122
1.0
132
0.0
 79
     0
146
0.0
  0
ENDTAB
  0
TABLE
  2
LTYPE
  5
14F0
330
0
100
AcDbSymbolTable
 70
     3
  0
LTYPE
  5
14FD
330
14F0
100
AcDbSymbolTableRecord
100
AcDbLinetypeTableRecord
  2
BYBLOCK
 70
     0
  3

 72
    65
 73
     0
 40
0.0
  0
LTYPE
  5
14FE
330
14F0
100
AcDbSymbolTableRecord
100
AcDbLinetypeTableRecord
  2
BYLAYER
 70
     0
  3

 72
    65
 73
     0
 40
0.0
  0
LTYPE
  5
14FF
330
14F0
100
AcDbSymbolTableRecord
100
AcDbLinetypeTableRecord
  2
CONTINUOUS
 70
     0
  3
Solid line
 72
    65
 73
     0
 40
0.0
  0
LTYPE
  5
1512
330
14F0
100
AcDbSymbolTableRecord
100
AcDbLinetypeTableRecord
  2
AUSGEZOGEN
 70
     0
  3
_______________________________
 72
    65
 73
     0
 40
0.0
  0
LTYPE
  5
2181
330
14F0
100
AcDbSymbolTableRecord
100
AcDbLinetypeTableRecord
  2
MITTE
 70
     0
  3
____ _ ____ _ ____ _ ____ _ ____ _ ____ _ ____ 
 72
    65
 73
     4
 40
2.0
 49
1.25
 74
     0
 49
-0.25
 74
     0
 49
0.25
 74
     0
 49
-0.25
 74
     0
  0
ENDTAB
  0
TABLE
  2
LAYER
  5
14ED
330
0
100
AcDbSymbolTable
 70
     3
  0
LAYER
  5
14FA
330
14ED
100
AcDbSymbolTableRecord
100
AcDbLayerTableRecord
  2
0
 70
     0
 62
     1
  6
CONTINUOUS
370
    -3
390
31D1
  0
LAYER
  5
1D3B
330
14ED
100
AcDbSymbolTableRecord
100
AcDbLayerTableRecord
  2
03-KONTUR
 70
     0
 62
     7
  6
AUSGEZOGEN
370
    -3
390
31D1
  0
LAYER
  5
2296
330
14ED
100
AcDbSymbolTableRecord
100
AcDbLayerTableRecord
  2
DEFPOINTS
 70
     0
 62
     1
  6
AUSGEZOGEN
290
     0
370
    -3
390
31D1
  0
ENDTAB
  0
TABLE
  2
STYLE
  5
14EE
330
0
100
AcDbSymbolTable
 70
     1
  0
STYLE
  5
14FB
330
14EE
100
AcDbSymbolTableRecord
100
AcDbTextStyleTableRecord
  2
STANDARD
 70
     0
 40
0.0
 41
0.8
 50
0.0
 71
     0
 42
5.0
  3
C:\Programme\AutoCAD LT 2000i Deu\romans.shx
  4

  0
ENDTAB
  0
TABLE
  2
VIEW
  5
14F1
330
0
100
AcDbSymbolTable
 70
     0
  0
ENDTAB
  0
TABLE
  2
UCS
  5
14F2
330
0
100
AcDbSymbolTable
 70
     0
  0
ENDTAB
  0
TABLE
  2
APPID
  5
14F4
330
0
100
AcDbSymbolTable
 70
     1
  0
APPID
  5
14FC
330
14F4
100
AcDbSymbolTableRecord
100
AcDbRegAppTableRecord
  2
ACAD
 70
     0
  0
ENDTAB
  0
TABLE
  2
DIMSTYLE
  5
14F5
330
0
100
AcDbSymbolTable
 70
     1
100
AcDbDimStyleTable
 71
     0
  0
DIMSTYLE
105
1516
330
14F5
100
AcDbSymbolTableRecord
100
AcDbDimStyleTableRecord
  2
STANDARD
 70
     0
279
     2
340
14FB
  0
ENDTAB
  0
TABLE
  2
BLOCK_RECORD
  5
14EC
330
0
100
AcDbSymbolTable
 70
     7
  0
BLOCK_RECORD
  5
1503
330
14EC
100
AcDbSymbolTableRecord
100
AcDbBlockTableRecord
  2
*MODEL_SPACE
340
31D4
  0
BLOCK_RECORD
  5
1500
330
14EC
100
AcDbSymbolTableRecord
100
AcDbBlockTableRecord
  2
*PAPER_SPACE
340
31D5
  0
ENDTAB
  0
ENDSEC
  0
SECTION
  2
BLOCKS
  0
BLOCK
  5
1521
330
1503
100
AcDbEntity
  8
0
 62
     6
100
AcDbBlockBegin
  2
*MODEL_SPACE
 70
     0
 10
0.0
 20
0.0
 30
0.0
  3
*MODEL_SPACE
  1

  0
ENDBLK
  5
1522
330
1503
100
AcDbEntity
  8
0
 62
     6
100
AcDbBlockEnd
  0
BLOCK
  5
151F
330
1500
100
AcDbEntity
 67
     1
  8
0
 62
     6
100
AcDbBlockBegin
  2
*PAPER_SPACE
 70
     0
 10
0.0
 20
0.0
 30
0.0
  3
*PAPER_SPACE
  1

  0
ENDBLK
  5
1520
330
1500
100
AcDbEntity
 67
     1
  8
0
 62
     6
100
AcDbBlockEnd
  0
ENDSEC
  0
SECTION
  2
ENTITIES
  0
CIRCLE
  5
2E95
330
1503
100
AcDbEntity
  8
03-KONTUR
 62
     7
 48
10.0
100
AcDbCircle
 10
761.7090603794378
 20
36.6743600866018
 30
0.0
 40
7.349999999999999
  0
LINE
  5
2E9A
330
1503
100
AcDbEntity
  8
03-KONTUR
100
AcDbLine
 10
664.8944225515382
 20
23.11906216925612
 30
0.0
 11
664.8944225515378
 21
30.0141060487574
 31
0.0
1001
ACAD
1000
ASC_BOUNDS
1002
{
1070
    19
1002
}
  0
LINE
  5
2E9B
330
1503
100
AcDbEntity
  8
03-KONTUR
100
AcDbLine
 10
664.8944225515375
 20
26.01410604875749
 30
0.0
 11
664.8944225515377
 21
21.35385201091299
 31
0.0
1001
ACAD
1000
ASC_BOUNDS
1002
{
1070
    19
1002
}
  0
LINE
  5
2FF6
330
1503
100
AcDbEntity
  8
03-KONTUR
100
AcDbLine
 10
664.8944225515371
 20
51.99486816229072
 30
0.0
 11
664.8944225515373
 21
48.22136547039446
 31
0.0
  0
LINE
  5
305E
330
1503
100
AcDbEntity
  8
03-KONTUR
100
AcDbLine
 10
746.709060379438
 20
45.33461412444618
 30
0.0
 11
761.7090603794379
 21
53.99486816229075
 31
0.0
  0
LINE
  5
305F
330
1503
100
AcDbEntity
  8
03-KONTUR
100
AcDbLine
 10
746.7090603794382
 20
28.01410604875751
 30
0.0
 11
746.709060379438
 21
45.33461412444618
 31
0.0
  0
LINE
  5
3061
330
1503
100
AcDbEntity
  8
03-KONTUR
100
AcDbLine
 10
761.7090603794378
 20
19.35385201091301
 30
0.0
 11
746.7090603794382
 21
28.01410604875751
 31
0.0
  0
LINE
  5
3062
330
1503
100
AcDbEntity
  8
03-KONTUR
100
AcDbLine
 10
761.7090603794378
 20
19.35385201091301
 30
0.0
 11
776.7090603794375
 21
28.01410604875742
 31
0.0
  0
LINE
  5
3063
330
1503
100
AcDbEntity
  8
03-KONTUR
100
AcDbLine
 10
776.7090603794375
 20
28.01410604875742
 30
0.0
 11
776.7090603794374
 21
45.33461412444589
 31
0.0
  0
LINE
  5
3066
330
1503
100
AcDbEntity
  8
03-KONTUR
100
AcDbLine
 10
776.7090603794374
 20
45.33461412444589
 30
0.0
 11
761.7090603794379
 21
53.99486816229075
 31
0.0
  0
CIRCLE
  5
3067
330
1503
100
AcDbEntity
  8
03-KONTUR
100
AcDbCircle
 10
761.7090603794378
 20
36.6743600866018
 30
0.0
 40
17.32050807568832
  0
CIRCLE
  5
3068
330
1503
100
AcDbEntity
  8
03-KONTUR
100
AcDbCircle
 10
761.7090603794378
 20
36.6743600866018
 30
0.0
 40
25.0
  0
LINE
  5
310F
330
1503
100
AcDbEntity
  8
03-KONTUR
100
AcDbLine
 10
697.8944225515374
 20
43.40100349067384
 30
0.0
 11
697.8944225515374
 21
11.6743600866018
 31
0.0
  0
LINE
  5
3110
330
1503
100
AcDbEntity
  8
03-KONTUR
100
AcDbLine
 10
697.8944225515369
 20
61.6743600866016
 30
0.0
 11
697.8944225515377
 21
43.25776753456162
 31
0.0
  0
LINE
  5
3127
330
1503
100
AcDbEntity
  8
03-KONTUR
100
AcDbLine
 10
697.8944225515374
 20
11.6743600866018
 30
0.0
 11
689.8944225515374
 21
11.6743600866018
 31
0.0
  0
LINE
  5
3128
330
1503
100
AcDbEntity
  8
03-KONTUR
100
AcDbLine
 10
689.8944225515375
 20
61.6743600866016
 30
0.0
 11
689.8944225515374
 21
55.99486816229074
 31
0.0
  0
LINE
  5
3129
330
1503
100
AcDbEntity
  8
03-KONTUR
100
AcDbLine
 10
697.8944225515369
 20
61.6743600866016
 30
0.0
 11
689.8944225515375
 21
61.6743600866016
 31
0.0
  0
LINE
  5
312A
330
1503
100
AcDbEntity
  8
03-KONTUR
100
AcDbLine
 10
679.8944225515376
 20
36.6743600866018
 30
0.0
 11
679.8944225515379
 21
19.35385201091301
 31
0.0
1001
ACAD
1000
ASC_BOUNDS
1002
{
1070
    19
1002
}
  0
LINE
  5
312B
330
1503
100
AcDbEntity
  8
03-KONTUR
100
AcDbLine
 10
687.8944225515374
 20
19.35385201091301
 30
0.0
 11
666.8944225515376
 21
19.35385201091301
 31
0.0
  0
LINE
  5
312C
330
1503
100
AcDbEntity
  8
03-KONTUR
100
AcDbLine
 10
679.8944225515377
 20
28.01410604875752
 30
0.0
 11
666.8944225515379
 21
28.01410604875752
 31
0.0
  0
LINE
  5
312D
330
1503
100
AcDbEntity
  8
03-KONTUR
100
AcDbLine
 10
687.8944225515374
 20
53.99486816229075
 30
0.0
 11
666.8944225515372
 21
53.99486816229075
 31
0.0
  0
ARC
  5
312E
330
1503
100
AcDbEntity
  8
03-KONTUR
100
AcDbCircle
 10
666.8944225515376
 20
21.35385201091301
 30
0.0
 40
2.0
100
AcDbArc
 50
180.0000000000009
 51
270.0
  0
ARC
  5
312F
330
1503
100
AcDbEntity
  8
03-KONTUR
100
AcDbCircle
 10
666.8944225515372
 20
51.99486816229074
 30
0.0
 40
2.0
100
AcDbArc
 50
90.0
 51
180.0000000000009
  0
ARC
  5
3130
330
1503
100
AcDbEntity
  8
03-KONTUR
100
AcDbCircle
 10
666.8944225515375
 20
26.01410604875752
 30
0.0
 40
2.0
100
AcDbArc
 50
90.0
 51
180.0000000000006
  0
ARC
  5
3131
330
1503
100
AcDbEntity
  8
03-KONTUR
100
AcDbCircle
 10
666.8944225515379
 20
30.01410604875752
 30
0.0
 40
2.0
100
AcDbArc
 50
180.0000000000014
 51
270.0
1001
ACAD
1000
ASC_BOUNDS
1002
{
1070
    19
1002
}
  0
LINE
  5
3132
330
1503
100
AcDbEntity
  8
03-KONTUR
100
AcDbLine
 10
689.8944225515374
 20
17.35385201091301
 30
0.0
 11
689.8944225515374
 21
11.6743600866018
 31
0.0
  0
ARC
  5
3133
330
1503
100
AcDbEntity
  8
03-KONTUR
100
AcDbCircle
 10
687.8944225515374
 20
17.35385201091301
 30
0.0
 40
2.0
100
AcDbArc
 50
359.9999999999997
 51
90.0
  0
LINE
  5
3136
330
1503
100
AcDbEntity
  8
03-KONTUR
100
AcDbLine
 10
689.8944225515374
 20
36.67436008660171
 30
0.0
 11
689.8944225515373
 21
17.35385201091301
 31
0.0
  0
ARC
  5
3137
330
1503
100
AcDbEntity
  8
03-KONTUR
100
AcDbCircle
 10
687.8944225515374
 20
55.99486816229074
 30
0.0
 40
2.0
100
AcDbArc
 50
270.0
 51
0.0
  0
LINE
  5
313C
330
1503
100
AcDbEntity
  8
03-KONTUR
100
AcDbLine
 10
664.8944225515373
 20
48.22136547039446
 30
0.0
 11
664.8944225515379
 21
30.01410604875747
 31
0.0
1001
ACAD
1000
ASC_BOUNDS
1002
{
1070
    19
1002
}
  0
CIRCLE
  5
31E0
330
1503
100
AcDbEntity
  8
03-KONTUR
100
AcDbCircle
 10
761.7090603794378
 20
36.6743600866018
 30
0.0
 40
14.99999999999963
  0
LINE
  5
323F
330
1503
100
AcDbEntity
  8
03-KONTUR
100
AcDbLine
 10
689.8944225515374
 20
36.67436008660171
 30
0.0
 11
689.8944225515373
 21
55.9948681622904
 31
0.0
  0
LINE
  5
3240
330
1503
100
AcDbEntity
  8
03-KONTUR
100
AcDbLine
 10
679.8944225515376
 20
36.6743600866016
 30
0.0
 11
679.8944225515379
 21
53.9948681622904
 31
0.0
1001
ACAD
1000
ASC_BOUNDS
1002
{
1070
    19
1002
}
  0
LINE
  5
3241
330
1503
100
AcDbEntity
  8
03-KONTUR
100
AcDbLine
 10
679.8944225515377
 20
45.33461412444589
 30
0.0
 11
666.8944225515379
 21
45.33461412444589
 31
0.0
  0
ARC
  5
3242
330
1503
100
AcDbEntity
  8
03-KONTUR
100
AcDbCircle
 10
666.8944225515379
 20
43.33461412444589
 30
0.0
 40
2.0
100
AcDbArc
 50
90.00000000000003
 51
179.9999999999985
1001
ACAD
1000
ASC_BOUNDS
1002
{
1070
    19
1002
}
  0
ARC
  5
3243
330
1503
100
AcDbEntity
  8
03-KONTUR
100
AcDbCircle
 10
666.8944225515375
 20
47.33461412444589
 30
0.0
 40
2.0
100
AcDbArc
 50
179.9999999999993
 51
270.0
  0
ENDSEC
  0
SECTION
  2
OBJECTS
  0
DICTIONARY
  5
14F7
330
0
100
AcDbDictionary
281
     1
  3
ACAD_GROUP
350
14F8
  3
ACAD_LAYOUT
350
31D2
  3
ACAD_MLINESTYLE
350
14F9
  3
ACAD_PLOTSETTINGS
350
31D3
  3
ACAD_PLOTSTYLENAME
350
31D0
  3
AcDbVariableDictionary
350
31F9
  0
DICTIONARY
  5
14F8
102
{ACAD_REACTORS
330
14F7
102
}
330
14F7
100
AcDbDictionary
281
     1
  0
DICTIONARY
  5
31D2
102
{ACAD_REACTORS
330
14F7
102
}
330
14F7
100
AcDbDictionary
281
     1
  3
Layout1
350
31D5
  3
Model
350
31D4
  0
DICTIONARY
  5
14F9
102
{ACAD_REACTORS
330
14F7
102
}
330
14F7
100
AcDbDictionary
281
     1
  3
STANDARD
350
1506
  0
DICTIONARY
  5
31D3
102
{ACAD_REACTORS
330
14F7
102
}
330
14F7
100
AcDbDictionary
281
     1
  0
ACDBDICTIONARYWDFLT
  5
31D0
102
{ACAD_REACTORS
330
14F7
102
}
330
14F7
100
AcDbDictionary
281
     1
  3
Normal
350
31D1
100
AcDbDictionaryWithDefault
340
31D1
  0
DICTIONARY
  5
31F9
102
{ACAD_REACTORS
330
14F7
102
}
330
14F7
100
AcDbDictionary
281
     1
  3
SORTENTS
350
31FA
  0
LAYOUT
  5
31D5
102
{ACAD_REACTORS
330
31D2
102
}
330
31D2
100
AcDbPlotSettings
  1

  2
Kyocera Mita FS-1000+
  4

  6

 40
0.0
 41
0.0
 42
0.0
 43
0.0
 44
0.0
 45
0.0
 46
0.0
 47
0.0
 48
0.0
 49
0.0
140
0.0
141
0.0
142
1.0
143
1.0
 70
   688
 72
     0
 73
     0
 74
     5
  7

 75
    16
147
1.0
148
0.0
149
0.0
100
AcDbLayout
  1
Layout1
 70
     1
 71
     1
 10
0.0
 20
0.0
 11
12.0
 21
9.0
 12
0.0
 22
0.0
 32
0.0
 14
1.000000000000000E+20
 24
1.000000000000000E+20
 34
1.000000000000000E+20
 15
-1.000000000000000E+20
 25
-1.000000000000000E+20
 35
-1.000000000000000E+20
146
0.0
 13
0.0
 23
0.0
 33
0.0
 16
1.0
 26
0.0
 36
0.0
 17
0.0
 27
1.0
 37
0.0
 76
     0
330
1500
  0
LAYOUT
  5
31D4
102
{ACAD_REACTORS
330
31D2
102
}
330
31D2
100
AcDbPlotSettings
  1

  2
Kyocera Mita FS-1800
  4
A4
  6

 40
6.805083274841308
 41
5.027085304260253
 42
6.805084228515625
 43
5.027069091796875
 44
209.9733276367187
 45
296.9259948730469
 46
0.0
 47
8.96
 48
543.2162585118873
 49
-136.9929676107041
140
920.5562585118872
141
138.507032389296
142
1.0
143
1.403012661911184
 70
 11956
 72
     1
 73
     1
 74
     4
  7

 75
     0
147
0.7127519424078466
148
-543.2162585118873
149
136.9929676107041
100
AcDbLayout
  1
Model
 70
     1
 71
     0
 10
0.0
 20
0.0
 11
12.0
 21
9.0
 12
0.0
 22
0.0
 32
0.0
 14
0.0
 24
0.0
 34
0.0
 15
0.0
 25
0.0
 35
0.0
146
0.0
 13
0.0
 23
0.0
 33
0.0
 16
1.0
 26
0.0
 36
0.0
 17
0.0
 27
1.0
 37
0.0
 76
     0
330
1503
  0
MLINESTYLE
  5
1506
102
{ACAD_REACTORS
330
14F9
102
}
330
14F9
100
AcDbMlineStyle
  2
STANDARD
 70
     0
  3

 62
     0
 51
90.0
 52
90.0
 71
     2
 49
0.5
 62
   256
  6
BYLAYER
 49
-0.5
 62
   256
  6
BYLAYER
  0
ACDBPLACEHOLDER
  5
31D1
102
{ACAD_REACTORS
330
31D0
102
}
330
31D0
  0
DICTIONARYVAR
  5
31FA
102
{ACAD_REACTORS
330
31F9
102
}
330
31F9
100
DictionaryVariables
280
     0
  1
96
  0
ENDSEC
  0
EOF
