  0
SECTION
  2
HEADER
  9
$ACADVER
  1
AC1015
  9
$ACADMAINTVER
 70
    10
  9
$DWGCODEPAGE
  3
ANSI_1252
  9
$INSBASE
 10
0.0
 20
0.0
 30
0.0
  9
$EXTMIN
 10
705.3803763915795
 20
-9.917923978134354
 30
0.0
  9
$EXTMAX
 10
825.3803763915795
 20
110.0820760218656
 30
0.0
  9
$LIMMIN
 10
0.0
 20
0.0
  9
$LIMMAX
 10
12.0
 20
9.0
  9
$ORTHOMODE
 70
     1
  9
$REGENMODE
 70
     1
  9
$FILLMODE
 70
     1
  9
$QTEXTMODE
 70
     0
  9
$MIRRTEXT
 70
     1
  9
$LTSCALE
 40
25.0
  9
$ATTMODE
 70
     1
  9
$TEXTSIZE
 40
5.0
  9
$TRACEWID
 40
0.05
  9
$TEXTSTYLE
  7
STANDARD
  9
$CLAYER
  8
03-KONTUR
  9
$CELTYPE
  6
BYLAYER
  9
$CECOLOR
 62
   256
  9
$CELTSCALE
 40
1.0
  9
$DISPSILH
 70
     0
  9
$DIMSCALE
 40
1.0
  9
$DIMASZ
 40
4.0
  9
$DIMEXO
 40
0.0625
  9
$DIMDLI
 40
0.0
  9
$DIMRND
 40
0.0
  9
$DIMDLE
 40
0.0
  9
$DIMEXE
 40
2.0
  9
$DIMTP
 40
1.0
  9
$DIMTM
 40
0.0
  9
$DIMTXT
 40
3.5
  9
$DIMCEN
 40
0.09
  9
$DIMTSZ
 40
0.0
  9
$DIMTOL
 70
     0
  9
$DIMLIM
 70
     0
  9
$DIMTIH
 70
     0
  9
$DIMTOH
 70
     0
  9
$DIMSE1
 70
     0
  9
$DIMSE2
 70
     0
  9
$DIMTAD
 70
     1
  9
$DIMZIN
 70
     0
  9
$DIMBLK
  1

  9
$DIMASO
 70
     1
  9
$DIMSHO
 70
     1
  9
$DIMPOST
  1

  9
$DIMAPOST
  1

  9
$DIMALT
 70
     0
  9
$DIMALTD
 70
     2
  9
$DIMALTF
 40
25.4
  9
$DIMLFAC
 40
1.0
  9
$DIMTOFL
 70
     1
  9
$DIMTVP
 40
0.0
  9
$DIMTIX
 70
     0
  9
$DIMSOXD
 70
     0
  9
$DIMSAH
 70
     0
  9
$DIMBLK1
  1

  9
$DIMBLK2
  1

  9
$DIMSTYLE
  2
STANDARD
  9
$DIMCLRD
 70
     6
  9
$DIMCLRE
 70
     6
  9
$DIMCLRT
 70
     1
  9
$DIMTFAC
 40
0.7
  9
$DIMGAP
 40
2.0
  9
$DIMJUST
 70
     0
  9
$DIMSD1
 70
     0
  9
$DIMSD2
 70
     0
  9
$DIMTOLJ
 70
     0
  9
$DIMTZIN
 70
     0
  9
$DIMALTZ
 70
     0
  9
$DIMALTTZ
 70
     0
  9
$DIMUPT
 70
     1
  9
$DIMDEC
 70
     0
  9
$DIMTDEC
 70
     0
  9
$DIMALTU
 70
     2
  9
$DIMALTTD
 70
     2
  9
$DIMTXSTY
  7
STANDARD
  9
$DIMAUNIT
 70
     0
  9
$DIMADEC
 70
     0
  9
$DIMALTRND
 40
0.0
  9
$DIMAZIN
 70
     0
  9
$DIMDSEP
 70
    46
  9
$DIMATFIT
 70
     1
  9
$DIMFRAC
 70
     0
  9
$DIMLDRBLK
  1

  9
$DIMLUNIT
 70
     2
  9
$DIMLWD
 70
    -2
  9
$DIMLWE
 70
    -2
  9
$DIMTMOVE
 70
     0
  9
$LUNITS
 70
     2
  9
$LUPREC
 70
     4
  9
$SKETCHINC
 40
0.1
  9
$FILLETRAD
 40
3.0
  9
$AUNITS
 70
     0
  9
$AUPREC
 70
     0
  9
$MENU
  1
.
  9
$ELEVATION
 40
0.0
  9
$PELEVATION
 40
0.0
  9
$THICKNESS
 40
0.0
  9
$LIMCHECK
 70
     0
  9
$CHAMFERA
 40
3.0
  9
$CHAMFERB
 40
3.0
  9
$CHAMFERC
 40
0.0
  9
$CHAMFERD
 40
0.0
  9
$SKPOLY
 70
     0
  9
$TDCREATE
 40
2450597.539778125
  9
$TDUCREATE
 40
2450597.498111458
  9
$TDUPDATE
 40
2453013.532715532
  9
$TDUUPDATE
 40
2453013.491048866
  9
$TDINDWG
 40
0.8970752083
  9
$TDUSRTIMER
 40
0.8970752083
  9
$USRTIMER
 70
     1
  9
$ANGBASE
 50
0.0
  9
$ANGDIR
 70
     0
  9
$PDMODE
 70
     0
  9
$PDSIZE
 40
0.0
  9
$PLINEWID
 40
0.0
  9
$SPLFRAME
 70
     0
  9
$SPLINETYPE
 70
     6
  9
$SPLINESEGS
 70
     8
  9
$HANDSEED
  5
3644
  9
$SURFTAB1
 70
     6
  9
$SURFTAB2
 70
     6
  9
$SURFTYPE
 70
     6
  9
$SURFU
 70
     6
  9
$SURFV
 70
     6
  9
$UCSBASE
  2

  9
$UCSNAME
  2

  9
$UCSORG
 10
0.0
 20
0.0
 30
0.0
  9
$UCSXDIR
 10
1.0
 20
0.0
 30
0.0
  9
$UCSYDIR
 10
0.0
 20
1.0
 30
0.0
  9
$UCSORTHOREF
  2

  9
$UCSORTHOVIEW
 70
     0
  9
$UCSORGTOP
 10
0.0
 20
0.0
 30
0.0
  9
$UCSORGBOTTOM
 10
0.0
 20
0.0
 30
0.0
  9
$UCSORGLEFT
 10
0.0
 20
0.0
 30
0.0
  9
$UCSORGRIGHT
 10
0.0
 20
0.0
 30
0.0
  9
$UCSORGFRONT
 10
0.0
 20
0.0
 30
0.0
  9
$UCSORGBACK
 10
0.0
 20
0.0
 30
0.0
  9
$PUCSBASE
  2

  9
$PUCSNAME
  2

  9
$PUCSORG
 10
0.0
 20
0.0
 30
0.0
  9
$PUCSXDIR
 10
1.0
 20
0.0
 30
0.0
  9
$PUCSYDIR
 10
0.0
 20
1.0
 30
0.0
  9
$PUCSORTHOREF
  2

  9
$PUCSORTHOVIEW
 70
     0
  9
$PUCSORGTOP
 10
0.0
 20
0.0
 30
0.0
  9
$PUCSORGBOTTOM
 10
0.0
 20
0.0
 30
0.0
  9
$PUCSORGLEFT
 10
0.0
 20
0.0
 30
0.0
  9
$PUCSORGRIGHT
 10
0.0
 20
0.0
 30
0.0
  9
$PUCSORGFRONT
 10
0.0
 20
0.0
 30
0.0
  9
$PUCSORGBACK
 10
0.0
 20
0.0
 30
0.0
  9
$USERI1
 70
     0
  9
$USERI2
 70
     0
  9
$USERI3
 70
     0
  9
$USERI4
 70
     0
  9
$USERI5
 70
     0
  9
$USERR1
 40
0.0
  9
$USERR2
 40
0.0
  9
$USERR3
 40
0.0
  9
$USERR4
 40
0.0
  9
$USERR5
 40
0.0
  9
$WORLDVIEW
 70
     1
  9
$SHADEDGE
 70
     3
  9
$SHADEDIF
 70
    70
  9
$TILEMODE
 70
     1
  9
$MAXACTVP
 70
    16
  9
$PINSBASE
 10
0.0
 20
0.0
 30
0.0
  9
$PLIMCHECK
 70
     0
  9
$PEXTMIN
 10
1.000000000000000E+20
 20
1.000000000000000E+20
 30
1.000000000000000E+20
  9
$PEXTMAX
 10
-1.000000000000000E+20
 20
-1.000000000000000E+20
 30
-1.000000000000000E+20
  9
$PLIMMIN
 10
0.0
 20
0.0
  9
$PLIMMAX
 10
12.0
 20
9.0
  9
$UNITMODE
 70
     0
  9
$VISRETAIN
 70
     0
  9
$PLINEGEN
 70
     0
  9
$PSLTSCALE
 70
     1
  9
$TREEDEPTH
 70
  3020
  9
$CMLSTYLE
  2
STANDARD
  9
$CMLJUST
 70
     0
  9
$CMLSCALE
 40
1.0
  9
$PROXYGRAPHICS
 70
     1
  9
$MEASUREMENT
 70
     0
  9
$CELWEIGHT
370
    -1
  9
$ENDCAPS
280
     0
  9
$JOINSTYLE
280
     0
  9
$LWDISPLAY
290
     0
  9
$INSUNITS
 70
     0
  9
$HYPERLINKBASE
  1

  9
$STYLESHEET
  1

  9
$XEDIT
290
     1
  9
$CEPSNTYPE
380
     0
  9
$PSTYLEMODE
290
     1
  9
$FINGERPRINTGUID
  2
{F955C360-D52D-11D6-B41D-0050BA12178D}
  9
$VERSIONGUID
  2
{6E7CF86A-B850-4B51-99DD-1C0291B132C9}
  9
$EXTNAMES
290
     1
  9
$PSVPSCALE
 40
0.0
  9
$OLESTARTUP
290
     0
  0
ENDSEC
  0
SECTION
  2
CLASSES
  0
CLASS
  1
OLE2FRAME
  2
AcDbOle2Frame
  3
AutoCAD 2000
 90
    32768
280
     0
281
     1
  0
CLASS
  1
ACDBDICTIONARYWDFLT
  2
AcDbDictionaryWithDefault
  3
AutoCAD 2000
 90
        0
280
     0
281
     0
  0
CLASS
  1
ACDBPLACEHOLDER
  2
AcDbPlaceHolder
  3
AutoCAD 2000
 90
        0
280
     0
281
     0
  0
CLASS
  1
LAYOUT
  2
AcDbLayout
  3
AutoCAD 2000
 90
        0
280
     0
281
     0
  0
ENDSEC
  0
SECTION
  2
TABLES
  0
TABLE
  2
VPORT
  5
14F3
330
0
100
AcDbSymbolTable
 70
     3
  0
VPORT
  5
3643
330
14F3
100
AcDbSymbolTableRecord
100
AcDbViewportTableRecord
  2
*Active
 70
     0
 10
0.0
 20
0.0
 11
1.0
 21
1.0
 12
765.3644343461433
 22
50.08138170803688
 13
0.0
 23
0.0
 14
1.0
 24
1.0
 15
0.0
 25
0.0
 16
0.0
 26
0.0
 36
1.0
 17
0.0
 27
0.0
 37
0.0
 40
121.3974433224516
 41
1.887814313346228
 42
50.0
 43
0.0
 44
0.0
 50
0.0
 51
0.0
 71
     0
 72
   100
 73
     1
 74
     0
 75
     0
 76
     0
 77
     0
 78
     0
281
     0
 65
     1
110
0.0
120
0.0
130
0.0
111
1.0
121
0.0
131
0.0
112
0.0
122
1.0
132
0.0
 79
     0
146
0.0
  0
ENDTAB
  0
TABLE
  2
LTYPE
  5
14F0
330
0
100
AcDbSymbolTable
 70
     3
  0
LTYPE
  5
14FD
330
14F0
100
AcDbSymbolTableRecord
100
AcDbLinetypeTableRecord
  2
BYBLOCK
 70
     0
  3

 72
    65
 73
     0
 40
0.0
  0
LTYPE
  5
14FE
330
14F0
100
AcDbSymbolTableRecord
100
AcDbLinetypeTableRecord
  2
BYLAYER
 70
     0
  3

 72
    65
 73
     0
 40
0.0
  0
LTYPE
  5
14FF
330
14F0
100
AcDbSymbolTableRecord
100
AcDbLinetypeTableRecord
  2
CONTINUOUS
 70
     0
  3
Solid line
 72
    65
 73
     0
 40
0.0
  0
LTYPE
  5
1512
330
14F0
100
AcDbSymbolTableRecord
100
AcDbLinetypeTableRecord
  2
AUSGEZOGEN
 70
     0
  3
_______________________________
 72
    65
 73
     0
 40
0.0
  0
LTYPE
  5
2181
330
14F0
100
AcDbSymbolTableRecord
100
AcDbLinetypeTableRecord
  2
MITTE
 70
     0
  3
____ _ ____ _ ____ _ ____ _ ____ _ ____ _ ____ 
 72
    65
 73
     4
 40
2.0
 49
1.25
 74
     0
 49
-0.25
 74
     0
 49
0.25
 74
     0
 49
-0.25
 74
     0
  0
ENDTAB
  0
TABLE
  2
LAYER
  5
14ED
330
0
100
AcDbSymbolTable
 70
    14
  0
LAYER
  5
14FA
330
14ED
100
AcDbSymbolTableRecord
100
AcDbLayerTableRecord
  2
0
 70
     0
 62
     1
  6
CONTINUOUS
370
    -3
390
3510
  0
LAYER
  5
1D3B
330
14ED
100
AcDbSymbolTableRecord
100
AcDbLayerTableRecord
  2
03-KONTUR
 70
     0
 62
     7
  6
AUSGEZOGEN
370
    -3
390
3510
  0
LAYER
  5
1E78
330
14ED
100
AcDbSymbolTableRecord
100
AcDbLayerTableRecord
  2
01-RAHMEN
 70
     0
 62
     7
  6
CONTINUOUS
370
    -3
390
3510
  0
LAYER
  5
1E7B
330
14ED
100
AcDbSymbolTableRecord
100
AcDbLayerTableRecord
  2
02-SCHRIFTKOPF
 70
     0
 62
     1
  6
CONTINUOUS
370
    -3
390
3510
  0
LAYER
  5
20D0
330
14ED
100
AcDbSymbolTableRecord
100
AcDbLayerTableRecord
  2
10-TEXT25
 70
     0
 62
     1
  6
CONTINUOUS
370
    -3
390
3510
  0
LAYER
  5
21A4
330
14ED
100
AcDbSymbolTableRecord
100
AcDbLayerTableRecord
  2
05-MITTELLINIE
 70
     0
 62
     6
  6
MITTE
370
    -3
390
3510
  0
LAYER
  5
21A8
330
14ED
100
AcDbSymbolTableRecord
100
AcDbLayerTableRecord
  2
09-BEMAßUNG
 70
     0
 62
     1
  6
CONTINUOUS
370
    -3
390
3510
  0
LAYER
  5
21BB
330
14ED
100
AcDbSymbolTableRecord
100
AcDbLayerTableRecord
  2
06-SCHRAFFUR
 70
     0
 62
     6
  6
CONTINUOUS
370
    -3
390
3510
  0
LAYER
  5
2296
330
14ED
100
AcDbSymbolTableRecord
100
AcDbLayerTableRecord
  2
DEFPOINTS
 70
     0
 62
     1
  6
AUSGEZOGEN
290
     0
370
    -3
390
3510
  0
LAYER
  5
2299
330
14ED
100
AcDbSymbolTableRecord
100
AcDbLayerTableRecord
  2
TEXT-25
 70
     0
 62
     1
  6
CONTINUOUS
370
    -3
390
3510
  0
LAYER
  5
2A8F
330
14ED
100
AcDbSymbolTableRecord
100
AcDbLayerTableRecord
  2
08-GEWINDE
 70
     0
 62
     1
  6
CONTINUOUS
370
    -3
390
3510
  0
LAYER
  5
2A91
330
14ED
100
AcDbSymbolTableRecord
100
AcDbLayerTableRecord
  2
2NNHHGF
 70
     0
 62
     1
  6
AUSGEZOGEN
370
    -3
390
3510
  0
LAYER
  5
2A95
330
14ED
100
AcDbSymbolTableRecord
100
AcDbLayerTableRecord
  2
03-KONTUR1
 70
     0
 62
     5
  6
CONTINUOUS
370
    -3
390
3510
  0
LAYER
  5
3576
330
14ED
100
AcDbSymbolTableRecord
100
AcDbLayerTableRecord
  2
09-INDIZEES
 70
     0
 62
     1
  6
CONTINUOUS
370
    -3
390
3510
  0
ENDTAB
  0
TABLE
  2
STYLE
  5
14EE
330
0
100
AcDbSymbolTable
 70
     1
  0
STYLE
  5
14FB
330
14EE
100
AcDbSymbolTableRecord
100
AcDbTextStyleTableRecord
  2
STANDARD
 70
     0
 40
0.0
 41
0.8
 50
0.0
 71
     0
 42
5.0
  3
C:\Programme\AutoCAD LT\romans.shx
  4

  0
ENDTAB
  0
TABLE
  2
VIEW
  5
14F1
330
0
100
AcDbSymbolTable
 70
     0
  0
ENDTAB
  0
TABLE
  2
UCS
  5
14F2
330
0
100
AcDbSymbolTable
 70
     0
  0
ENDTAB
  0
TABLE
  2
APPID
  5
14F4
330
0
100
AcDbSymbolTable
 70
     1
  0
APPID
  5
14FC
330
14F4
100
AcDbSymbolTableRecord
100
AcDbRegAppTableRecord
  2
ACAD
 70
     0
  0
ENDTAB
  0
TABLE
  2
DIMSTYLE
  5
14F5
330
0
100
AcDbSymbolTable
 70
     1
100
AcDbDimStyleTable
 71
     1
340
1516
  0
DIMSTYLE
105
1516
330
14F5
100
AcDbSymbolTableRecord
100
AcDbDimStyleTableRecord
  2
STANDARD
 70
     0
279
     2
340
14FB
  0
ENDTAB
  0
TABLE
  2
BLOCK_RECORD
  5
14EC
330
0
100
AcDbSymbolTable
 70
     5
  0
BLOCK_RECORD
  5
1503
330
14EC
100
AcDbSymbolTableRecord
100
AcDbBlockTableRecord
  2
*MODEL_SPACE
340
3513
  0
BLOCK_RECORD
  5
1500
330
14EC
100
AcDbSymbolTableRecord
100
AcDbBlockTableRecord
  2
*PAPER_SPACE
340
3514
  0
BLOCK_RECORD
  5
3518
330
14EC
100
AcDbSymbolTableRecord
100
AcDbBlockTableRecord
  2
GUßTEILE
340
0
102
{BLKREFS
331
354A
102
}
  0
BLOCK_RECORD
  5
3539
330
14EC
100
AcDbSymbolTableRecord
100
AcDbBlockTableRecord
  2
EN-GJS-500
340
0
  0
BLOCK_RECORD
  5
353D
330
14EC
100
AcDbSymbolTableRecord
100
AcDbBlockTableRecord
  2
Adresse
340
0
310
28000000200000002000000001000800000000000004000000000000000000000000000000000000000000004000000080000000FF000000002000004020000080200000FF200000004000004040000080400000FF400000006000004060000080600000FF600000008000004080000080800000FF80000000A0000040A000
310
0080A00000FFA0000000C0000040C0000080C00000FFC0000000FF000040FF000080FF0000FFFF0000000020004000200080002000FF002000002020004020200080202000FF202000004020004040200080402000FF402000006020004060200080602000FF602000008020004080200080802000FF80200000A0200040A0
310
200080A02000FFA0200000C0200040C0200080C02000FFC0200000FF200040FF200080FF2000FFFF2000000040004000400080004000FF004000002040004020400080204000FF204000004040004040400080404000FF404000006040004060400080604000FF604000008040004080400080804000FF80400000A0400040
310
A0400080A04000FFA0400000C0400040C0400080C04000FFC0400000FF400040FF400080FF4000FFFF4000000060004000600080006000FF006000002060004020600080206000FF206000004060004040600080406000FF406000006060004060600080606000FF606000008060004080600080806000FF80600000A06000
310
40A0600080A06000FFA0600000C0600040C0600080C06000FFC0600000FF600040FF600080FF6000FFFF6000000080004000800080008000FF008000002080004020800080208000FF208000004080004040800080408000FF408000006080004060800080608000FF608000008080004080800080808000FF80800000A080
310
0040A0800080A08000FFA0800000C0800040C0800080C08000FFC0800000FF800040FF800080FF8000FFFF80000000A0004000A0008000A000FF00A0000020A0004020A0008020A000FF20A0000040A0004040A0008040A000FF40A0000060A0004060A0008060A000FF60A0000080A0004080A0008080A000FF80A00000A0
310
A00040A0A00080A0A000FFA0A00000C0A00040C0A00080C0A000FFC0A00000FFA00040FFA00080FFA000FFFFA0000000C0004000C0008000C000FF00C0000020C0004020C0008020C000FF20C0000040C0004040C0008040C000FF40C0000060C0004060C0008060C000FF60C0000080C0004080C0008080C000FF80C00000
310
A0C00040A0C00080A0C000FFA0C00000C0C00040C0C00080C0C000FFC0C00000FFC00040FFC00080FFC000FFFFC0000000FF004000FF008000FF00FF00FF000020FF004020FF008020FF00FF20FF000040FF004040FF008040FF00FF40FF000060FF004060FF008060FF00FF60FF000080FF004080FF008080FF00FF80FF00
310
00A0FF0040A0FF0080A0FF00FFA0FF0000C0FF0040C0FF0080C0FF00FFC0FF0000FFFF0040FFFF0080FFFF00FFFFFF00FFFFFFFFFFFFFFFFFFFFFFFFFFFFFFFFFFFFFFFFFFFFFFFFFFFFFFFFFFFFFFFFFFFFFFFFFFFFFFFFFFFFFFFFFFFFFFFFFFFFFFFFFFFFFFFFFFFFFFFFFFFFFFFFFFFFFFFFFFFFFFFFFFFFFFFFFFFFFF
310
FFFFFFFFFFFFFFFFFFFFFFFFFFFFFFFFFFFFFFFFFFFFFFFFFFFFFFFFFFFFFFFFFFFFFFFFFFFFFFFFFFFFFFFFFFFFFFFFFFFFFFFFFFFFFFFFFFFFFFFFFFFFFFFFFFFFFFFFFFFFFFFFFFFFFFFFFFFFFFFFFFFFFFFFFFFFFFFFFFFFFFFFFFFFFFFFFFFFFFFFFFFFFFFFFFFFFFFFFFFFFFFFFFFFFFFFFFFFFFFFFFFFFFFFFFFFFF
310
FFFFFFFFFFFFFFFFFFFFFFFFFFFFFFFFFFFFFFFFFFFFFFFFFFFFFFFFFFFFFFFFFFFFFFFFFFFFFFFFFFFFFFFFFFFFFFFFFFFFFFFFFFFFFFFFFFFFFFFFFFFFFFFFFFFFFFFFFFFFFFFFFFFFFFFFFFFFFFFFFFFFFFFFFFFFFFFFFFFFFFFFE3E3E3E3E3E3E3E3E3E3E3E3E3E3E3E3FFFFFFFFFFFFFFFFFFFFFFFFFFFFFFFFE3E3E3
310
E3E3E3E3E3E3E3E3E3E3E3E3E3FFFFFFFFFFFFFFFFE3E3E3E3E3E3FFFFE3E3E3E3E3E3E3E3E3E3E3E3E3E3E3E3E3E3E3E3E3FFFFFFE3FFE3E3E3E3FFFFE3E3E3E3E3E3E3E3E3E3E3E3E3E3E3E3E3E3E3E3E3FFFFFFE3E3E3E3FFFFFFFFFFE3E3E3E3E3E3E3E3FFE3E3FFE3E3E3FFE3E3E3FFFFFFFFE3E3E3FFFFFFFFFFE3E3
310
E3E3E3E3E3E3E3FFE3E3E3E3E3E3E3E3E3E3FFFFFFFFFFFFFFFFFFFFFFFFFFFFFFFFE3E3E3FFFFFFFFFFFFFFFFFFFFFFFFFFFFFFFFFFE3E3E3FFFFFFFFFFFFE3E3E3E3E3E3E3E3FFE3E3FFE3E3E3FFE3FFFFFFFFFFE3E3E3FFFFFFFFFFFFE3E3E3E3E3E3E3E3E3FFE3E3E3E3E3E3E3E3E3FFFFFFFFFFFFFFFFFFFFFFFFFFFF
310
FFFFFFFFFFFFFFFFFFFFFFFFFFFFFFFFFFFFFFFFFFFFFFE3E3E3E3E3E3E3E3E3E3E3E3E3E3E3FFFFFFFFFFFFFFFFFFFFFFFFFFFFFFFFFFE3FFE3E3E3E3FFE3FFFFFFFFFFFFFFE3FFFFFFFFFFFFFFFFFFFFFFFFFFFFFFE3E3E3E3E3E3E3E3E3E3E3E3E3E3E3E3E3E3E3E3E3E3E3E3E3E3E3E3E3E3FFFFE3E3E3E3E3E3E3FFE3
310
E3E3E3E3E3E3E3E3E3E3E3E3E3E3E3E3E3E3E3E3E3FFFFFFFFFFFFFFFFFFFFFFFFFFFFFFFFFFFFFFFFFFFFFFFFFFFFFFFFFFFFFFFFFFFFFFFFFFFFFFFFFFFFFFFFFFFFFFFFFFFFFFFFFFFFFFFFFFFFFFFFFFFFFFFFFFFFFFFFFFFFFFFFFFFFFFFFFFFFFFFFFFFFFFFFFFFFFFFFFFFFFFFFFFFFFFFFFFFFFFFFFFFFFFFFFFFF
310
FFFFFFFFFFFFFFFFFFFFFFFFFFFFFFFFFFFFFFFFFFFFFFFFFFFFFFFFFFFFFFFFFFFFFFFFFFFFFFFFFFFFFFFFFFFFFFFFFFFFFFFFFFFFFFFFFFFFFFFFFFFFFFFFFFFFFFFFFFFFFFFFFFFFFFFFFFFFFFFFFFFFFFFFFFFFFFFFFFFFFFFFFFFFFFFFFFFFFFFFFFFFFFFFFFFFFFFFFFFFFFFFFFFFFFFFFFFFFFFFFFFFFFFFFFFFFF
310
FFFFFFFFFFFFFFFFFFFFFFFFFFFFFFFFFFFFFFFFFFFFFFFFFFFFFFFFFFFFFFFFFFFFFFFFFFFFFFFFFFFFFFFFFFFFFFFFFFFFFFFFFFFFFFFF
  0
BLOCK_RECORD
  5
3549
330
14EC
100
AcDbSymbolTableRecord
100
AcDbBlockTableRecord
  2
A$C9213
340
0
  0
BLOCK_RECORD
  5
356F
330
14EC
100
AcDbSymbolTableRecord
100
AcDbBlockTableRecord
  2
A
340
0
  0
ENDTAB
  0
ENDSEC
  0
SECTION
  2
BLOCKS
  0
BLOCK
  5
1521
330
1503
100
AcDbEntity
  8
0
 62
     6
100
AcDbBlockBegin
  2
*MODEL_SPACE
 70
     0
 10
0.0
 20
0.0
 30
0.0
  3
*MODEL_SPACE
  1

  0
ENDBLK
  5
1522
330
1503
100
AcDbEntity
  8
0
 62
     6
100
AcDbBlockEnd
  0
BLOCK
  5
151F
330
1500
100
AcDbEntity
 67
     1
  8
0
 62
     6
100
AcDbBlockBegin
  2
*PAPER_SPACE
 70
     0
 10
0.0
 20
0.0
 30
0.0
  3
*PAPER_SPACE
  1

  0
ENDBLK
  5
1520
330
1500
100
AcDbEntity
 67
     1
  8
0
 62
     6
100
AcDbBlockEnd
  0
BLOCK
  5
3537
330
3518
100
AcDbEntity
  8
0
100
AcDbBlockBegin
  2
GUßTEILE
 70
     0
 10
0.0
 20
0.0
 30
0.0
  3
GUßTEILE
  1

  0
TEXT
  5
3519
330
3518
100
AcDbEntity
  8
10-TEXT25
 48
10.0
100
AcDbText
 10
42.56784117364373
 20
26.37607179550231
 30
0.0
 40
2.5
  1
and/or acc. to drawing data
 41
0.8
 11
42.56784117364373
 21
25.54273846216898
 31
0.0
100
AcDbText
 73
     1
  0
TEXT
  5
351A
330
3518
100
AcDbEntity
  8
10-TEXT25
 48
10.0
100
AcDbText
 10
42.56784117364373
 20
17.68900308149911
 30
0.0
 40
2.5
  1
and/or acc. to drawing data
 41
0.8
 11
42.56784117364373
 21
16.85566974816578
 31
0.0
100
AcDbText
 73
     1
  0
TEXT
  5
351B
330
3518
100
AcDbEntity
  8
10-TEXT25
 48
10.0
100
AcDbText
 10
42.56783973831306
 20
21.97424142305046
 30
0.0
 40
2.5
  1
acc. to DIN 1684-1, GTA 16/5
 41
0.8
 11
42.56783973831306
 21
21.14090808971713
 31
0.0
100
AcDbText
 73
     1
  0
TEXT
  5
351C
330
3518
100
AcDbEntity
  8
10-TEXT25
 48
10.0
100
AcDbText
 10
-0.6836220122920622
 20
21.97424142305046
 30
0.0
 40
2.5
  1
outer shape:
 41
0.8
 11
-0.6836220122920622
 21
21.14090808971713
 31
0.0
100
AcDbText
 73
     1
  0
TEXT
  5
351D
330
3518
100
AcDbEntity
  8
10-TEXT25
 48
10.0
100
AcDbText
 10
42.43746896965819
 20
55.21464684249679
 30
0.0
 40
2.5
  1
bzw. nach Zeichnungsangabe
 41
0.8
 11
42.43746896965819
 21
54.38131350916345
 31
0.0
100
AcDbText
 73
     1
  0
TEXT
  5
351E
330
3518
100
AcDbEntity
  8
10-TEXT25
 48
10.0
100
AcDbText
 10
42.59252447173355
 20
59.12804179959916
 30
0.0
 40
2.5
  1
nach DIN 1684-1, GTA 16/5
 41
0.8
 11
42.59252447173355
 21
58.29470846626583
 31
0.0
100
AcDbText
 73
     1
  0
TEXT
  5
351F
330
3518
100
AcDbEntity
  8
10-TEXT25
 48
10.0
100
AcDbText
 10
-0.1914437155950281
 20
58.92309030910953
 30
0.0
 40
2.5
  1
Außenform:
 41
0.8
 11
-0.1914437155950281
 21
58.08975697577619
 31
0.0
100
AcDbText
 73
     1
  0
TEXT
  5
3520
330
3518
100
AcDbEntity
  8
10-TEXT25
 48
10.0
100
AcDbText
 10
-0.7463180814153248
 20
71.58224636539158
 30
0.0
 40
2.5
  1
Fertigungstoleranzen:
 41
0.8
 11
-0.7463180814153248
 21
70.74891303205825
 31
0.0
100
AcDbText
 73
     1
  0
TEXT
  5
3521
330
3518
100
AcDbEntity
  8
10-TEXT25
 48
10.0
100
AcDbText
 10
42.45012676127283
 20
50.64067038983332
 30
0.0
 40
2.5
  1
R 2,0
 41
0.8
 11
42.45012676127283
 21
49.80733705649999
 31
0.0
100
AcDbText
 73
     1
  0
TEXT
  5
3522
330
3518
100
AcDbEntity
  8
10-TEXT25
 48
10.0
100
AcDbText
 10
42.45012819660348
 20
38.2100881525903
 30
0.0
 40
2.5
  1
roh
 41
0.8
 11
42.45012819660348
 21
37.37675481925697
 31
0.0
100
AcDbText
 73
     1
  0
TEXT
  5
3523
330
3518
100
AcDbEntity
  8
10-TEXT25
 48
10.0
100
AcDbText
 10
42.59252447173355
 20
42.4657025000097
 30
0.0
 40
2.5
  1
entgratet
 41
0.8
 11
42.59252447173355
 21
41.63236916667637
 31
0.0
100
AcDbText
 73
     1
  0
TEXT
  5
3524
330
3518
100
AcDbEntity
  8
10-TEXT25
 48
10.0
100
AcDbText
 10
42.59252447173355
 20
46.64283562588004
 30
0.0
 40
2.5
  1
entgratet
 41
0.8
 11
42.59252447173355
 21
45.8095022925467
 31
0.0
100
AcDbText
 73
     1
  0
TEXT
  5
3525
330
3518
100
AcDbEntity
  8
10-TEXT25
 48
10.0
100
AcDbText
 10
-0.5571365569643377
 20
38.2100881525903
 30
0.0
 40
2.5
  1
Oberfläche:
 41
0.8
 11
-0.5571365569643377
 21
37.37675481925697
 31
0.0
100
AcDbText
 73
     1
  0
TEXT
  5
3526
330
3518
100
AcDbEntity
  8
10-TEXT25
 48
10.0
100
AcDbText
 10
-0.1914437155950281
 20
46.43788413539041
 30
0.0
 40
2.5
  1
Außenkanten:
 41
0.8
 11
-0.1914437155950281
 21
45.60455080205708
 31
0.0
100
AcDbText
 73
     1
  0
TEXT
  5
3527
330
3518
100
AcDbEntity
  8
10-TEXT25
 48
10.0
100
AcDbText
 10
-0.6836220122920622
 20
34.16416057505878
 30
0.0
 40
2.5
  1
manufacturing tolerances:
 41
0.8
 11
-0.6836220122920622
 21
33.33082724172544
 31
0.0
100
AcDbText
 73
     1
  0
TEXT
  5
3528
330
3518
100
AcDbEntity
  8
10-TEXT25
 48
10.0
100
AcDbText
 10
-0.643700843892816
 20
50.43571889934369
 30
0.0
 40
2.5
  1
nicht vermaßte Radien:
 41
0.8
 11
-0.643700843892816
 21
49.60238556601035
 31
0.0
100
AcDbText
 73
     1
  0
TEXT
  5
3529
330
3518
100
AcDbEntity
  8
10-TEXT25
 48
10.0
100
AcDbText
 10
-0.5571365569643377
 20
42.4657025000097
 30
0.0
 40
2.5
  1
Gewindeanfang/-ende:
 41
0.8
 11
-0.5571365569643377
 21
41.63236916667637
 31
0.0
100
AcDbText
 73
     1
  0
TEXT
  5
352A
330
3518
100
AcDbEntity
  8
10-TEXT25
 48
10.0
100
AcDbText
 10
42.58050040058901
 20
9.28516132106076
 30
0.0
 40
2.5
  1
deburred
 41
0.8
 11
42.58050040058901
 21
8.451827987727426
 31
0.0
100
AcDbText
 73
     1
  0
TEXT
  5
352B
330
3518
100
AcDbEntity
  8
10-TEXT25
 48
10.0
100
AcDbText
 10
42.43810269012806
 20
0.9387353567513134
 30
0.0
 40
2.5
  1
rough
 41
0.8
 11
42.43810269012806
 21
0.1054020234179802
 31
0.0
100
AcDbText
 73
     1
  0
TEXT
  5
352C
330
3518
100
AcDbEntity
  8
10-TEXT25
 48
10.0
100
AcDbText
 10
42.58049896525835
 20
4.995838062850471
 30
0.0
 40
2.5
  1
deburred
 41
0.8
 11
42.58049896525835
 21
4.162504729517138
 31
0.0
100
AcDbText
 73
     1
  0
TEXT
  5
352D
330
3518
100
AcDbEntity
  8
10-TEXT25
 48
10.0
100
AcDbText
 10
-0.6372324226263118
 20
9.080209830571126
 30
0.0
 40
2.5
  1
outer edges:
 41
0.8
 11
-0.6372324226263118
 21
8.246876497237792
 31
0.0
100
AcDbText
 73
     1
  0
TEXT
  5
352E
330
3518
100
AcDbEntity
  8
10-TEXT25
 48
10.0
100
AcDbText
 10
-0.6134150767143183
 20
0.9387353567513134
 30
0.0
 40
2.5
  1
surface:
 41
0.8
 11
-0.6134150767143183
 21
0.1054020234179802
 31
0.0
100
AcDbText
 73
     1
  0
TEXT
  5
352F
330
3518
100
AcDbEntity
  8
10-TEXT25
 48
10.0
100
AcDbText
 10
-0.4814069240906064
 20
4.995838062850471
 30
0.0
 40
2.5
  1
thread:
 41
0.8
 11
-0.4814069240906065
 21
4.162504729517138
 31
0.0
100
AcDbText
 73
     1
  0
TEXT
  5
3530
330
3518
100
AcDbEntity
  8
10-TEXT25
 48
10.0
100
AcDbText
 10
-0.725237857709999
 20
12.80233192094819
 30
0.0
 40
2.5
  1
not dimensioned radii:
 41
0.8
 11
-0.725237857709999
 21
11.96899858761486
 31
0.0
100
AcDbText
 73
     1
  0
TEXT
  5
3531
330
3518
100
AcDbEntity
  8
10-TEXT25
 48
10.0
100
AcDbText
 10
42.43810269012828
 20
13.00728341143783
 30
0.0
 40
2.5
  1
R 2,0
 41
0.8
 11
42.43810269012828
 21
12.17395007810449
 31
0.0
100
AcDbText
 73
     1
  0
TEXT
  5
3532
330
3518
100
AcDbEntity
  8
10-TEXT25
 48
10.0
100
AcDbText
 10
42.56783973831306
 20
34.16416057505878
 30
0.0
 40
2.5
  1
acc. to DIN ISO 2768-1 class c
 41
0.8
 11
42.56783973831306
 21
33.33082724172544
 31
0.0
100
AcDbText
 73
     1
  0
TEXT
  5
3533
330
3518
100
AcDbEntity
  8
10-TEXT25
 48
10.0
100
AcDbText
 10
55.70197996937849
 20
30.24819547066137
 30
0.0
 40
2.5
  1
DIN ISO 2768-2 class L
 41
0.8
 11
55.70197996937849
 21
29.41486213732804
 31
0.0
100
AcDbText
 73
     1
  0
TEXT
  5
3534
330
3518
100
AcDbEntity
  8
10-TEXT25
 48
10.0
100
AcDbText
 10
51.52041487277085
 20
67.51361171535619
 30
0.0
 40
2.5
  1
DIN ISO 2768-2 Klasse L
 41
0.8
 11
51.52041487277085
 21
66.68027838202286
 31
0.0
100
AcDbText
 73
     1
  0
TEXT
  5
3535
330
3518
100
AcDbEntity
  8
10-TEXT25
 48
10.0
100
AcDbText
 10
42.43746896965819
 20
71.58224636539158
 30
0.0
 40
2.5
  1
nach DIN ISO 2768-1 Klasse c
 41
0.8
 11
42.43746896965819
 21
70.74891303205825
 31
0.0
100
AcDbText
 73
     1
  0
TEXT
  5
3536
330
3518
100
AcDbEntity
  8
10-TEXT25
 48
10.0
100
AcDbText
 10
42.43746896965819
 20
63.68979583438806
 30
0.0
 40
2.5
  1
bzw. nach Zeichnungsangabe
 41
0.8
 11
42.43746896965819
 21
62.85646250105472
 31
0.0
100
AcDbText
 73
     1
  0
ENDBLK
  5
3538
330
3518
100
AcDbEntity
  8
0
100
AcDbBlockEnd
  0
BLOCK
  5
353B
330
3539
100
AcDbEntity
  8
0
100
AcDbBlockBegin
  2
EN-GJS-500
 70
     0
 10
0.0
 20
0.0
 30
0.0
  3
EN-GJS-500
  1

  0
TEXT
  5
353A
330
3539
100
AcDbEntity
  8
10-TEXT25
 48
10.0
100
AcDbText
 10
-0.0010436810157585
 20
2.963657820226396
 30
-3.51
 40
3.5
  1
HBW 10/3000 170-230
 41
0.8
 72
     2
 11
52.53228965231755
 21
1.79699115355973
 31
-3.51
100
AcDbText
 73
     1
  0
ENDBLK
  5
353C
330
3539
100
AcDbEntity
  8
0
100
AcDbBlockEnd
  0
BLOCK
  5
3547
330
353D
100
AcDbEntity
  8
0
100
AcDbBlockBegin
  2
Adresse
 70
     0
 10
0.0
 20
0.0
 30
0.0
  3
Adresse
  1

  0
TEXT
  5
353E
330
353D
100
AcDbEntity
  8
02-SCHRIFTKOPF
 62
     6
 48
1.5
100
AcDbText
 10
822.5884360574356
 20
-74.21208536970673
 30
0.0
 40
1.8
  1
e-mail
100
AcDbText
  0
TEXT
  5
353F
330
353D
100
AcDbEntity
  8
02-SCHRIFTKOPF
 62
     6
 48
1.5
100
AcDbText
 10
822.5565317960089
 20
-70.4679584817205
 30
0.0
 40
1.8
  1
Fax.
100
AcDbText
  0
TEXT
  5
3540
330
353D
100
AcDbEntity
  8
02-SCHRIFTKOPF
 62
     6
 48
1.5
100
AcDbText
 10
822.5884360574356
 20
-65.89663912540763
 30
0.0
 40
1.8
  1
Tel.
100
AcDbText
  0
TEXT
  5
3541
330
353D
100
AcDbEntity
  8
02-SCHRIFTKOPF
 62
     6
 48
1.5
100
AcDbText
 10
822.5965191984011
 20
-58.19448572491032
 30
0.0
 40
2.0
  1
Stahlwerk Annahütte Systemtechnik GmbH
 41
0.7
100
AcDbText
  0
TEXT
  5
3542
330
353D
100
AcDbEntity
  8
02-SCHRIFTKOPF
 62
     6
 48
1.5
100
AcDbText
 10
822.7422992237942
 20
-61.74317405985309
 30
0.0
 40
1.8
  1
D-83404 Hammerau
 41
0.8
100
AcDbText
  0
TEXT
  5
3543
330
353D
100
AcDbEntity
  8
02-SCHRIFTKOPF
 62
     6
 48
1.5
100
AcDbText
 10
836.2715555495903
 20
-65.89663912540763
 30
0.0
 40
1.8
  1
+49/(0)86 54-487-0
 41
0.9
100
AcDbText
  0
TEXT
  5
3544
330
353D
100
AcDbEntity
  8
02-SCHRIFTKOPF
 62
     6
 48
1.5
100
AcDbText
 10
836.2777794449742
 20
-70.31381295013133
 30
0.0
 40
1.8
  1
+49/(0)86 54-487-960
 41
0.9
100
AcDbText
  0
TEXT
  5
3545
330
353D
100
AcDbEntity
  8
02-SCHRIFTKOPF
 62
     6
 48
1.5
100
AcDbText
 10
835.4801734066787
 20
-74.21208536970673
 30
0.0
 40
1.8
  1
stahlwerk@annahuette.com
 41
0.9
100
AcDbText
  0
TEXT
  5
3546
330
353D
100
AcDbEntity
  8
02-SCHRIFTKOPF
 62
     6
 48
1.5
100
AcDbText
 10
835.4801734066787
 20
-77.43336069685844
 30
0.0
 40
1.8
  1
www.annahuette.com
 41
0.9
100
AcDbText
  0
ENDBLK
  5
3548
330
353D
100
AcDbEntity
  8
0
100
AcDbBlockEnd
  0
BLOCK
  5
354B
330
3549
100
AcDbEntity
  8
0
100
AcDbBlockBegin
  2
A$C9213
 70
     0
 10
0.0
 20
0.0
 30
0.0
  3
A$C9213
  1

  0
INSERT
  5
354A
330
3549
100
AcDbEntity
  8
10-TEXT25
100
AcDbBlockReference
  2
GUßTEILE
 10
0.8258456573418015
 20
0.1761852478087604
 30
0.0
  0
ENDBLK
  5
354C
330
3549
100
AcDbEntity
  8
0
100
AcDbBlockEnd
  0
BLOCK
  5
3574
330
356F
100
AcDbEntity
  8
0
100
AcDbBlockBegin
  2
A
 70
     0
 10
0.0
 20
0.0
 30
0.0
  3
A
  1

  0
LINE
  5
3570
330
356F
100
AcDbEntity
  8
09-INDIZEES
 62
     6
 48
10.0
100
AcDbLine
 10
3.454424660843073
 20
0.0
 30
0.0
 11
-3.454424660843187
 21
0.0
 31
0.0
  0
LINE
  5
3571
330
356F
100
AcDbEntity
  8
09-INDIZEES
 62
     6
 48
10.0
100
AcDbLine
 10
3.454424660843073
 20
0.0
 30
0.0
 11
-0.0000000000002274
 21
6.913801590111916
 31
0.0
  0
LINE
  5
3572
330
356F
100
AcDbEntity
  8
09-INDIZEES
 62
     6
 48
10.0
100
AcDbLine
 10
-0.0000000000002274
 20
6.913801590111916
 30
0.0
 11
-3.454424660843187
 21
0.0
 31
0.0
  0
MTEXT
  5
3573
330
356F
100
AcDbEntity
  8
09-INDIZEES
  6
ByBlock
 62
     1
 48
10.0
100
AcDbMText
 10
-0.1249700480950651
 20
2.9110834848791
 30
0.0
 40
3.75
 41
0.0
 71
     5
 72
     5
  1
{a}
 73
     1
 44
1.0
  0
ENDBLK
  5
3575
330
356F
100
AcDbEntity
  8
0
100
AcDbBlockEnd
  0
ENDSEC
  0
SECTION
  2
ENTITIES
  0
LINE
  5
2CFB
330
1503
100
AcDbEntity
  8
03-KONTUR
100
AcDbLine
 10
732.8803763915795
 20
68.84595977052829
 30
0.0
 11
765.38037639158
 21
87.60984351919155
 31
0.0
  0
LINE
  5
2CFC
330
1503
100
AcDbEntity
  8
03-KONTUR
100
AcDbLine
 10
732.8803763915798
 20
31.31819227320318
 30
0.0
 11
732.8803763915795
 21
68.84595977052829
 31
0.0
  0
LINE
  5
2CFE
330
1503
100
AcDbEntity
  8
03-KONTUR
100
AcDbLine
 10
765.3803763915791
 20
12.55430852453976
 30
0.0
 11
732.8803763915798
 21
31.31819227320318
 31
0.0
  0
LINE
  5
2CFF
330
1503
100
AcDbEntity
  8
03-KONTUR
100
AcDbLine
 10
765.3803763915791
 20
12.55430852453976
 30
0.0
 11
797.8803763915792
 21
31.3181922732027
 31
0.0
  0
LINE
  5
2D00
330
1503
100
AcDbEntity
  8
03-KONTUR
100
AcDbLine
 10
797.8803763915792
 20
31.3181922732027
 30
0.0
 11
797.8803763915792
 21
68.84595977052794
 31
0.0
  0
LINE
  5
2D01
330
1503
100
AcDbEntity
  8
03-KONTUR
100
AcDbLine
 10
797.8803763915792
 20
68.84595977052794
 30
0.0
 11
765.38037639158
 21
87.60984351919155
 31
0.0
  0
CIRCLE
  5
2D0E
330
1503
100
AcDbEntity
  8
03-KONTUR
100
AcDbCircle
 10
765.3803763915796
 20
50.08207602186565
 30
0.0
 40
19.75
  0
CIRCLE
  5
33F6
330
1503
100
AcDbEntity
  8
03-KONTUR
100
AcDbCircle
 10
765.3803763915796
 20
50.08207602186565
 30
0.0
 40
60.0
  0
MTEXT
  5
34FE
330
1503
100
AcDbEntity
  8
06-SCHRAFFUR
 62
     1
100
AcDbMText
 10
568.6538175622959
 20
6.729244074013763
 30
0.0
 40
3.5
 41
0.0
 71
     7
 72
     5
  1

 73
     1
 44
1.0
  0
ENDSEC
  0
SECTION
  2
OBJECTS
  0
DICTIONARY
  5
14F7
330
0
100
AcDbDictionary
281
     1
  3
ACAD_GROUP
350
14F8
  3
ACAD_LAYOUT
350
3511
  3
ACAD_MLINESTYLE
350
14F9
  3
ACAD_PLOTSETTINGS
350
3512
  3
ACAD_PLOTSTYLENAME
350
350F
  0
DICTIONARY
  5
14F8
102
{ACAD_REACTORS
330
14F7
102
}
330
14F7
100
AcDbDictionary
281
     1
  0
DICTIONARY
  5
3511
102
{ACAD_REACTORS
330
14F7
102
}
330
14F7
100
AcDbDictionary
281
     1
  3
Layout1
350
3514
  3
Model
350
3513
  0
DICTIONARY
  5
14F9
102
{ACAD_REACTORS
330
14F7
102
}
330
14F7
100
AcDbDictionary
281
     1
  3
STANDARD
350
1506
  0
DICTIONARY
  5
3512
102
{ACAD_REACTORS
330
14F7
102
}
330
14F7
100
AcDbDictionary
281
     1
  0
ACDBDICTIONARYWDFLT
  5
350F
102
{ACAD_REACTORS
330
14F7
102
}
330
14F7
100
AcDbDictionary
281
     1
  3
Normal
350
3510
100
AcDbDictionaryWithDefault
340
3510
  0
LAYOUT
  5
3514
102
{ACAD_REACTORS
330
3511
102
}
330
3511
100
AcDbPlotSettings
  1

  2
Kyocera Mita FS-1000+
  4

  6

 40
0.0
 41
0.0
 42
0.0
 43
0.0
 44
0.0
 45
0.0
 46
0.0
 47
0.0
 48
0.0
 49
0.0
140
0.0
141
0.0
142
1.0
143
1.0
 70
   688
 72
     0
 73
     0
 74
     5
  7

 75
    16
147
1.0
148
0.0
149
0.0
100
AcDbLayout
  1
Layout1
 70
     1
 71
     1
 10
0.0
 20
0.0
 11
12.0
 21
9.0
 12
0.0
 22
0.0
 32
0.0
 14
1.000000000000000E+20
 24
1.000000000000000E+20
 34
1.000000000000000E+20
 15
-1.000000000000000E+20
 25
-1.000000000000000E+20
 35
-1.000000000000000E+20
146
0.0
 13
0.0
 23
0.0
 33
0.0
 16
1.0
 26
0.0
 36
0.0
 17
0.0
 27
1.0
 37
0.0
 76
     0
330
1500
  0
LAYOUT
  5
3513
102
{ACAD_REACTORS
330
3511
102
}
330
3511
100
AcDbPlotSettings
  1

  2
PR-EF
  4
A4
  6

 40
6.805083274841308
 41
5.154074668884277
 42
6.847427368164062
 43
4.9847412109375
 44
210.0156707763671
 45
297.0106506347656
 46
0.0
 47
8.96
 48
543.2162585118873
 49
-136.9929676107041
140
920.5562585118872
141
138.507032389296
142
1.0
143
1.403012661911184
 70
 11956
 72
     1
 73
     1
 74
     4
  7

 75
     0
147
0.7127519424078466
148
-543.2162585118873
149
136.9929676107041
100
AcDbLayout
  1
Model
 70
     1
 71
     0
 10
0.0
 20
0.0
 11
12.0
 21
9.0
 12
0.0
 22
0.0
 32
0.0
 14
0.0
 24
0.0
 34
0.0
 15
0.0
 25
0.0
 35
0.0
146
0.0
 13
0.0
 23
0.0
 33
0.0
 16
1.0
 26
0.0
 36
0.0
 17
0.0
 27
1.0
 37
0.0
 76
     0
330
1503
  0
MLINESTYLE
  5
1506
102
{ACAD_REACTORS
330
14F9
102
}
330
14F9
100
AcDbMlineStyle
  2
STANDARD
 70
     0
  3

 62
     0
 51
90.0
 52
90.0
 71
     2
 49
0.5
 62
   256
  6
BYLAYER
 49
-0.5
 62
   256
  6
BYLAYER
  0
ACDBPLACEHOLDER
  5
3510
102
{ACAD_REACTORS
330
350F
102
}
330
350F
  0
ENDSEC
  0
EOF
