  0
SECTION
  2
HEADER
  9
$ACADVER
  1
AC1015
  9
$ACADMAINTVER
 70
    10
  9
$DWGCODEPAGE
  3
ANSI_1252
  9
$INSBASE
 10
0.0
 20
0.0
 30
0.0
  9
$EXTMIN
 10
654.810883047775
 20
21.21456256238423
 30
0.0
  9
$EXTMAX
 10
686.5592666008595
 20
78.94958948134713
 30
0.0
  9
$LIMMIN
 10
0.0
 20
0.0
  9
$LIMMAX
 10
12.0
 20
9.0
  9
$ORTHOMODE
 70
     1
  9
$REGENMODE
 70
     1
  9
$FILLMODE
 70
     1
  9
$QTEXTMODE
 70
     0
  9
$MIRRTEXT
 70
     1
  9
$LTSCALE
 40
25.0
  9
$ATTMODE
 70
     1
  9
$TEXTSIZE
 40
5.0
  9
$TRACEWID
 40
0.05
  9
$TEXTSTYLE
  7
STANDARD
  9
$CLAYER
  8
03-KONTUR
  9
$CELTYPE
  6
BYLAYER
  9
$CECOLOR
 62
   256
  9
$CELTSCALE
 40
1.0
  9
$DISPSILH
 70
     0
  9
$DIMSCALE
 40
1.0
  9
$DIMASZ
 40
4.0
  9
$DIMEXO
 40
0.0625
  9
$DIMDLI
 40
0.0
  9
$DIMRND
 40
0.0
  9
$DIMDLE
 40
0.0
  9
$DIMEXE
 40
2.0
  9
$DIMTP
 40
0.0
  9
$DIMTM
 40
1.0
  9
$DIMTXT
 40
3.5
  9
$DIMCEN
 40
0.09
  9
$DIMTSZ
 40
0.0
  9
$DIMTOL
 70
     1
  9
$DIMLIM
 70
     0
  9
$DIMTIH
 70
     0
  9
$DIMTOH
 70
     0
  9
$DIMSE1
 70
     0
  9
$DIMSE2
 70
     0
  9
$DIMTAD
 70
     1
  9
$DIMZIN
 70
     0
  9
$DIMBLK
  1

  9
$DIMASO
 70
     1
  9
$DIMSHO
 70
     1
  9
$DIMPOST
  1

  9
$DIMAPOST
  1

  9
$DIMALT
 70
     0
  9
$DIMALTD
 70
     2
  9
$DIMALTF
 40
25.4
  9
$DIMLFAC
 40
1.0
  9
$DIMTOFL
 70
     1
  9
$DIMTVP
 40
0.0
  9
$DIMTIX
 70
     0
  9
$DIMSOXD
 70
     0
  9
$DIMSAH
 70
     0
  9
$DIMBLK1
  1

  9
$DIMBLK2
  1

  9
$DIMSTYLE
  2
STANDARD
  9
$DIMCLRD
 70
     6
  9
$DIMCLRE
 70
     6
  9
$DIMCLRT
 70
     1
  9
$DIMTFAC
 40
0.7
  9
$DIMGAP
 40
2.0
  9
$DIMJUST
 70
     0
  9
$DIMSD1
 70
     0
  9
$DIMSD2
 70
     0
  9
$DIMTOLJ
 70
     0
  9
$DIMTZIN
 70
     0
  9
$DIMALTZ
 70
     0
  9
$DIMALTTZ
 70
     0
  9
$DIMUPT
 70
     0
  9
$DIMDEC
 70
     0
  9
$DIMTDEC
 70
     0
  9
$DIMALTU
 70
     2
  9
$DIMALTTD
 70
     2
  9
$DIMTXSTY
  7
STANDARD
  9
$DIMAUNIT
 70
     0
  9
$DIMADEC
 70
     0
  9
$DIMALTRND
 40
0.0
  9
$DIMAZIN
 70
     0
  9
$DIMDSEP
 70
    46
  9
$DIMATFIT
 70
     3
  9
$DIMFRAC
 70
     0
  9
$DIMLDRBLK
  1

  9
$DIMLUNIT
 70
     2
  9
$DIMLWD
 70
    -2
  9
$DIMLWE
 70
    -2
  9
$DIMTMOVE
 70
     0
  9
$LUNITS
 70
     2
  9
$LUPREC
 70
     4
  9
$SKETCHINC
 40
0.1
  9
$FILLETRAD
 40
0.0
  9
$AUNITS
 70
     0
  9
$AUPREC
 70
     0
  9
$MENU
  1
.
  9
$ELEVATION
 40
0.0
  9
$PELEVATION
 40
0.0
  9
$THICKNESS
 40
0.0
  9
$LIMCHECK
 70
     0
  9
$CHAMFERA
 40
3.0
  9
$CHAMFERB
 40
3.0
  9
$CHAMFERC
 40
0.0
  9
$CHAMFERD
 40
0.0
  9
$SKPOLY
 70
     0
  9
$TDCREATE
 40
2450597.539778125
  9
$TDUCREATE
 40
2450597.498111458
  9
$TDUPDATE
 40
2453013.522497013
  9
$TDUUPDATE
 40
2453013.480830347
  9
$TDINDWG
 40
0.5379106019
  9
$TDUSRTIMER
 40
0.5379106019
  9
$USRTIMER
 70
     1
  9
$ANGBASE
 50
0.0
  9
$ANGDIR
 70
     0
  9
$PDMODE
 70
     0
  9
$PDSIZE
 40
0.0
  9
$PLINEWID
 40
0.0
  9
$SPLFRAME
 70
     0
  9
$SPLINETYPE
 70
     6
  9
$SPLINESEGS
 70
     8
  9
$HANDSEED
  5
2F44
  9
$SURFTAB1
 70
     6
  9
$SURFTAB2
 70
     6
  9
$SURFTYPE
 70
     6
  9
$SURFU
 70
     6
  9
$SURFV
 70
     6
  9
$UCSBASE
  2

  9
$UCSNAME
  2

  9
$UCSORG
 10
0.0
 20
0.0
 30
0.0
  9
$UCSXDIR
 10
1.0
 20
0.0
 30
0.0
  9
$UCSYDIR
 10
0.0
 20
1.0
 30
0.0
  9
$UCSORTHOREF
  2

  9
$UCSORTHOVIEW
 70
     0
  9
$UCSORGTOP
 10
0.0
 20
0.0
 30
0.0
  9
$UCSORGBOTTOM
 10
0.0
 20
0.0
 30
0.0
  9
$UCSORGLEFT
 10
0.0
 20
0.0
 30
0.0
  9
$UCSORGRIGHT
 10
0.0
 20
0.0
 30
0.0
  9
$UCSORGFRONT
 10
0.0
 20
0.0
 30
0.0
  9
$UCSORGBACK
 10
0.0
 20
0.0
 30
0.0
  9
$PUCSBASE
  2

  9
$PUCSNAME
  2

  9
$PUCSORG
 10
0.0
 20
0.0
 30
0.0
  9
$PUCSXDIR
 10
1.0
 20
0.0
 30
0.0
  9
$PUCSYDIR
 10
0.0
 20
1.0
 30
0.0
  9
$PUCSORTHOREF
  2

  9
$PUCSORTHOVIEW
 70
     0
  9
$PUCSORGTOP
 10
0.0
 20
0.0
 30
0.0
  9
$PUCSORGBOTTOM
 10
0.0
 20
0.0
 30
0.0
  9
$PUCSORGLEFT
 10
0.0
 20
0.0
 30
0.0
  9
$PUCSORGRIGHT
 10
0.0
 20
0.0
 30
0.0
  9
$PUCSORGFRONT
 10
0.0
 20
0.0
 30
0.0
  9
$PUCSORGBACK
 10
0.0
 20
0.0
 30
0.0
  9
$USERI1
 70
     0
  9
$USERI2
 70
     0
  9
$USERI3
 70
     0
  9
$USERI4
 70
     0
  9
$USERI5
 70
     0
  9
$USERR1
 40
0.0
  9
$USERR2
 40
0.0
  9
$USERR3
 40
0.0
  9
$USERR4
 40
0.0
  9
$USERR5
 40
0.0
  9
$WORLDVIEW
 70
     1
  9
$SHADEDGE
 70
     3
  9
$SHADEDIF
 70
    70
  9
$TILEMODE
 70
     1
  9
$MAXACTVP
 70
    16
  9
$PINSBASE
 10
0.0
 20
0.0
 30
0.0
  9
$PLIMCHECK
 70
     0
  9
$PEXTMIN
 10
1.000000000000000E+20
 20
1.000000000000000E+20
 30
1.000000000000000E+20
  9
$PEXTMAX
 10
-1.000000000000000E+20
 20
-1.000000000000000E+20
 30
-1.000000000000000E+20
  9
$PLIMMIN
 10
0.0
 20
0.0
  9
$PLIMMAX
 10
12.0
 20
9.0
  9
$UNITMODE
 70
     0
  9
$VISRETAIN
 70
     0
  9
$PLINEGEN
 70
     0
  9
$PSLTSCALE
 70
     1
  9
$TREEDEPTH
 70
  3020
  9
$CMLSTYLE
  2
STANDARD
  9
$CMLJUST
 70
     0
  9
$CMLSCALE
 40
1.0
  9
$PROXYGRAPHICS
 70
     1
  9
$MEASUREMENT
 70
     0
  9
$CELWEIGHT
370
    -1
  9
$ENDCAPS
280
     0
  9
$JOINSTYLE
280
     0
  9
$LWDISPLAY
290
     0
  9
$INSUNITS
 70
     0
  9
$HYPERLINKBASE
  1

  9
$STYLESHEET
  1

  9
$XEDIT
290
     1
  9
$CEPSNTYPE
380
     0
  9
$PSTYLEMODE
290
     1
  9
$FINGERPRINTGUID
  2
{BAC53963-D522-11D6-B41D-0050BA12178D}
  9
$VERSIONGUID
  2
{B5FC87F6-FDF6-4565-AB2D-027B16EC7C9E}
  9
$EXTNAMES
290
     1
  9
$PSVPSCALE
 40
0.0
  9
$OLESTARTUP
290
     0
  0
ENDSEC
  0
SECTION
  2
CLASSES
  0
CLASS
  1
OLE2FRAME
  2
AcDbOle2Frame
  3
AutoCAD 2000
 90
    32768
280
     0
281
     1
  0
CLASS
  1
ACDBDICTIONARYWDFLT
  2
AcDbDictionaryWithDefault
  3
AutoCAD 2000
 90
        0
280
     0
281
     0
  0
CLASS
  1
ACDBPLACEHOLDER
  2
AcDbPlaceHolder
  3
AutoCAD 2000
 90
        0
280
     0
281
     0
  0
CLASS
  1
LAYOUT
  2
AcDbLayout
  3
AutoCAD 2000
 90
        0
280
     0
281
     0
  0
ENDSEC
  0
SECTION
  2
TABLES
  0
TABLE
  2
VPORT
  5
14F3
330
0
100
AcDbSymbolTable
 70
     3
  0
VPORT
  5
2F43
330
14F3
100
AcDbSymbolTableRecord
100
AcDbViewportTableRecord
  2
*Active
 70
     0
 10
0.0
 20
0.0
 11
1.0
 21
1.0
 12
670.6723730774495
 22
50.0882167428382
 13
0.0
 23
0.0
 14
1.0
 24
1.0
 15
0.0
 25
0.0
 16
0.0
 26
0.0
 36
1.0
 17
0.0
 27
0.0
 37
0.0
 40
58.41985196144371
 41
1.887814313346228
 42
50.0
 43
0.0
 44
0.0
 50
0.0
 51
0.0
 71
     0
 72
   100
 73
     1
 74
     0
 75
     0
 76
     0
 77
     0
 78
     0
281
     0
 65
     1
110
0.0
120
0.0
130
0.0
111
1.0
121
0.0
131
0.0
112
0.0
122
1.0
132
0.0
 79
     0
146
0.0
  0
ENDTAB
  0
TABLE
  2
LTYPE
  5
14F0
330
0
100
AcDbSymbolTable
 70
     3
  0
LTYPE
  5
14FD
330
14F0
100
AcDbSymbolTableRecord
100
AcDbLinetypeTableRecord
  2
BYBLOCK
 70
     0
  3

 72
    65
 73
     0
 40
0.0
  0
LTYPE
  5
14FE
330
14F0
100
AcDbSymbolTableRecord
100
AcDbLinetypeTableRecord
  2
BYLAYER
 70
     0
  3

 72
    65
 73
     0
 40
0.0
  0
LTYPE
  5
14FF
330
14F0
100
AcDbSymbolTableRecord
100
AcDbLinetypeTableRecord
  2
CONTINUOUS
 70
     0
  3
Solid line
 72
    65
 73
     0
 40
0.0
  0
LTYPE
  5
1512
330
14F0
100
AcDbSymbolTableRecord
100
AcDbLinetypeTableRecord
  2
AUSGEZOGEN
 70
     0
  3
_______________________________
 72
    65
 73
     0
 40
0.0
  0
LTYPE
  5
2181
330
14F0
100
AcDbSymbolTableRecord
100
AcDbLinetypeTableRecord
  2
MITTE
 70
     0
  3
____ _ ____ _ ____ _ ____ _ ____ _ ____ _ ____ 
 72
    65
 73
     4
 40
2.0
 49
1.25
 74
     0
 49
-0.25
 74
     0
 49
0.25
 74
     0
 49
-0.25
 74
     0
  0
ENDTAB
  0
TABLE
  2
LAYER
  5
14ED
330
0
100
AcDbSymbolTable
 70
    11
  0
LAYER
  5
14FA
330
14ED
100
AcDbSymbolTableRecord
100
AcDbLayerTableRecord
  2
0
 70
     0
 62
     1
  6
CONTINUOUS
370
    -3
390
2EA7
  0
LAYER
  5
1D3B
330
14ED
100
AcDbSymbolTableRecord
100
AcDbLayerTableRecord
  2
03-KONTUR
 70
     0
 62
     7
  6
AUSGEZOGEN
370
    -3
390
2EA7
  0
LAYER
  5
1E7B
330
14ED
100
AcDbSymbolTableRecord
100
AcDbLayerTableRecord
  2
02-SCHRIFTKOPF
 70
     0
 62
     1
  6
CONTINUOUS
370
    -3
390
2EA7
  0
LAYER
  5
20D0
330
14ED
100
AcDbSymbolTableRecord
100
AcDbLayerTableRecord
  2
10-TEXT25
 70
     0
 62
     1
  6
CONTINUOUS
370
    -3
390
2EA7
  0
LAYER
  5
21A4
330
14ED
100
AcDbSymbolTableRecord
100
AcDbLayerTableRecord
  2
05-MITTELLINIE
 70
     0
 62
     6
  6
MITTE
370
    -3
390
2EA7
  0
LAYER
  5
21A8
330
14ED
100
AcDbSymbolTableRecord
100
AcDbLayerTableRecord
  2
09-BEMAßUNG
 70
     0
 62
     1
  6
CONTINUOUS
370
    -3
390
2EA7
  0
LAYER
  5
2296
330
14ED
100
AcDbSymbolTableRecord
100
AcDbLayerTableRecord
  2
DEFPOINTS
 70
     0
 62
     1
  6
AUSGEZOGEN
290
     0
370
    -3
390
2EA7
  0
LAYER
  5
2A8F
330
14ED
100
AcDbSymbolTableRecord
100
AcDbLayerTableRecord
  2
08-GEWINDE
 70
     0
 62
     1
  6
CONTINUOUS
370
    -3
390
2EA7
  0
LAYER
  5
2A91
330
14ED
100
AcDbSymbolTableRecord
100
AcDbLayerTableRecord
  2
2NNHHGF
 70
     0
 62
     1
  6
AUSGEZOGEN
370
    -3
390
2EA7
  0
LAYER
  5
2A95
330
14ED
100
AcDbSymbolTableRecord
100
AcDbLayerTableRecord
  2
03-KONTUR1
 70
     0
 62
     5
  6
CONTINUOUS
370
    -3
390
2EA7
  0
LAYER
  5
2EE5
330
14ED
100
AcDbSymbolTableRecord
100
AcDbLayerTableRecord
  2
09-INDIZEES
 70
     0
 62
     1
  6
CONTINUOUS
370
    -3
390
2EA7
  0
ENDTAB
  0
TABLE
  2
STYLE
  5
14EE
330
0
100
AcDbSymbolTable
 70
     1
  0
STYLE
  5
14FB
330
14EE
100
AcDbSymbolTableRecord
100
AcDbTextStyleTableRecord
  2
STANDARD
 70
     0
 40
0.0
 41
0.8
 50
0.0
 71
     0
 42
5.0
  3
C:\Programme\AutoCAD LT\romans.shx
  4

  0
ENDTAB
  0
TABLE
  2
VIEW
  5
14F1
330
0
100
AcDbSymbolTable
 70
     0
  0
ENDTAB
  0
TABLE
  2
UCS
  5
14F2
330
0
100
AcDbSymbolTable
 70
     0
  0
ENDTAB
  0
TABLE
  2
APPID
  5
14F4
330
0
100
AcDbSymbolTable
 70
     1
  0
APPID
  5
14FC
330
14F4
100
AcDbSymbolTableRecord
100
AcDbRegAppTableRecord
  2
ACAD
 70
     0
  0
ENDTAB
  0
TABLE
  2
DIMSTYLE
  5
14F5
330
0
100
AcDbSymbolTable
 70
     1
100
AcDbDimStyleTable
 71
     0
  0
DIMSTYLE
105
1516
330
14F5
100
AcDbSymbolTableRecord
100
AcDbDimStyleTableRecord
  2
STANDARD
 70
     0
279
     2
340
14FB
  0
ENDTAB
  0
TABLE
  2
BLOCK_RECORD
  5
14EC
330
0
100
AcDbSymbolTable
 70
     8
  0
BLOCK_RECORD
  5
1503
330
14EC
100
AcDbSymbolTableRecord
100
AcDbBlockTableRecord
  2
*MODEL_SPACE
340
2EAA
  0
BLOCK_RECORD
  5
1500
330
14EC
100
AcDbSymbolTableRecord
100
AcDbBlockTableRecord
  2
*PAPER_SPACE
340
2EAB
  0
BLOCK_RECORD
  5
2DBF
330
14EC
100
AcDbSymbolTableRecord
100
AcDbBlockTableRecord
  2
A$C8333
340
0
  0
BLOCK_RECORD
  5
2EAF
330
14EC
100
AcDbSymbolTableRecord
100
AcDbBlockTableRecord
  2
STABMATERIAL
340
0
  0
BLOCK_RECORD
  5
2ECA
330
14EC
100
AcDbSymbolTableRecord
100
AcDbBlockTableRecord
  2
A
340
0
  0
BLOCK_RECORD
  5
2ED1
330
14EC
100
AcDbSymbolTableRecord
100
AcDbBlockTableRecord
  2
S355J2G3GEZOGEN
340
0
  0
BLOCK_RECORD
  5
2ED9
330
14EC
100
AcDbSymbolTableRecord
100
AcDbBlockTableRecord
  2
Adresse
340
0
310
28000000200000002000000001000800000000000004000000000000000000000000000000000000000000004000000080000000FF000000002000004020000080200000FF200000004000004040000080400000FF400000006000004060000080600000FF600000008000004080000080800000FF80000000A0000040A000
310
0080A00000FFA0000000C0000040C0000080C00000FFC0000000FF000040FF000080FF0000FFFF0000000020004000200080002000FF002000002020004020200080202000FF202000004020004040200080402000FF402000006020004060200080602000FF602000008020004080200080802000FF80200000A0200040A0
310
200080A02000FFA0200000C0200040C0200080C02000FFC0200000FF200040FF200080FF2000FFFF2000000040004000400080004000FF004000002040004020400080204000FF204000004040004040400080404000FF404000006040004060400080604000FF604000008040004080400080804000FF80400000A0400040
310
A0400080A04000FFA0400000C0400040C0400080C04000FFC0400000FF400040FF400080FF4000FFFF4000000060004000600080006000FF006000002060004020600080206000FF206000004060004040600080406000FF406000006060004060600080606000FF606000008060004080600080806000FF80600000A06000
310
40A0600080A06000FFA0600000C0600040C0600080C06000FFC0600000FF600040FF600080FF6000FFFF6000000080004000800080008000FF008000002080004020800080208000FF208000004080004040800080408000FF408000006080004060800080608000FF608000008080004080800080808000FF80800000A080
310
0040A0800080A08000FFA0800000C0800040C0800080C08000FFC0800000FF800040FF800080FF8000FFFF80000000A0004000A0008000A000FF00A0000020A0004020A0008020A000FF20A0000040A0004040A0008040A000FF40A0000060A0004060A0008060A000FF60A0000080A0004080A0008080A000FF80A00000A0
310
A00040A0A00080A0A000FFA0A00000C0A00040C0A00080C0A000FFC0A00000FFA00040FFA00080FFA000FFFFA0000000C0004000C0008000C000FF00C0000020C0004020C0008020C000FF20C0000040C0004040C0008040C000FF40C0000060C0004060C0008060C000FF60C0000080C0004080C0008080C000FF80C00000
310
A0C00040A0C00080A0C000FFA0C00000C0C00040C0C00080C0C000FFC0C00000FFC00040FFC00080FFC000FFFFC0000000FF004000FF008000FF00FF00FF000020FF004020FF008020FF00FF20FF000040FF004040FF008040FF00FF40FF000060FF004060FF008060FF00FF60FF000080FF004080FF008080FF00FF80FF00
310
00A0FF0040A0FF0080A0FF00FFA0FF0000C0FF0040C0FF0080C0FF00FFC0FF0000FFFF0040FFFF0080FFFF00FFFFFF00FFFFFFFFFFFFFFFFFFFFFFFFFFFFFFFFFFFFFFFFFFFFFFFFFFFFFFFFFFFFFFFFFFFFFFFFFFFFFFFFFFFFFFFFFFFFFFFFFFFFFFFFFFFFFFFFFFFFFFFFFFFFFFFFFFFFFFFFFFFFFFFFFFFFFFFFFFFFFF
310
FFFFFFFFFFFFFFFFFFFFFFFFFFFFFFFFFFFFFFFFFFFFFFFFFFFFFFFFFFFFFFFFFFFFFFFFFFFFFFFFFFFFFFFFFFFFFFFFFFFFFFFFFFFFFFFFFFFFFFFFFFFFFFFFFFFFFFFFFFFFFFFFFFFFFFFFFFFFFFFFFFFFFFFFFFFFFFFFFFFFFFFFFFFFFFFFFFFFFFFFFFFFFFFFFFFFFFFFFFFFFFFFFFFFFFFFFFFFFFFFFFFFFFFFFFFFFF
310
FFFFFFFFFFFFFFFFFFFFFFFFFFFFFFFFFFFFFFFFFFFFFFFFFFFFFFFFFFFFFFFFFFFFFFFFFFFFFFFFFFFFFFFFFFFFFFFFFFFFFFFFFFFFFFFFFFFFFFFFFFFFFFFFFFFFFFFFFFFFFFFFFFFFFFFFFFFFFFFFFFFFFFFFFFFFFFFFFFFFFFFFE3E3E3E3E3E3E3E3E3E3E3E3E3E3E3E3FFFFFFFFFFFFFFFFFFFFFFFFFFFFFFFFE3E3E3
310
E3E3E3E3E3E3E3E3E3E3E3E3E3FFFFFFFFFFFFFFFFE3E3E3E3E3E3FFFFE3E3E3E3E3E3E3E3E3E3E3E3E3E3E3E3E3E3E3E3E3FFFFFFE3FFE3E3E3E3FFFFE3E3E3E3E3E3E3E3E3E3E3E3E3E3E3E3E3E3E3E3E3FFFFFFE3E3E3E3FFFFFFFFFFE3E3E3E3E3E3E3E3FFE3E3FFE3E3E3FFE3E3E3FFFFFFFFE3E3E3FFFFFFFFFFE3E3
310
E3E3E3E3E3E3E3FFE3E3E3E3E3E3E3E3E3E3FFFFFFFFFFFFFFFFFFFFFFFFFFFFFFFFE3E3E3FFFFFFFFFFFFFFFFFFFFFFFFFFFFFFFFFFE3E3E3FFFFFFFFFFFFE3E3E3E3E3E3E3E3FFE3E3FFE3E3E3FFE3FFFFFFFFFFE3E3E3FFFFFFFFFFFFE3E3E3E3E3E3E3E3E3FFE3E3E3E3E3E3E3E3E3FFFFFFFFFFFFFFFFFFFFFFFFFFFF
310
FFFFFFFFFFFFFFFFFFFFFFFFFFFFFFFFFFFFFFFFFFFFFFE3E3E3E3E3E3E3E3E3E3E3E3E3E3E3FFFFFFFFFFFFFFFFFFFFFFFFFFFFFFFFFFE3FFE3E3E3E3FFE3FFFFFFFFFFFFFFE3FFFFFFFFFFFFFFFFFFFFFFFFFFFFFFE3E3E3E3E3E3E3E3E3E3E3E3E3E3E3E3E3E3E3E3E3E3E3E3E3E3E3E3E3E3FFFFE3E3E3E3E3E3E3FFE3
310
E3E3E3E3E3E3E3E3E3E3E3E3E3E3E3E3E3E3E3E3E3FFFFFFFFFFFFFFFFFFFFFFFFFFFFFFFFFFFFFFFFFFFFFFFFFFFFFFFFFFFFFFFFFFFFFFFFFFFFFFFFFFFFFFFFFFFFFFFFFFFFFFFFFFFFFFFFFFFFFFFFFFFFFFFFFFFFFFFFFFFFFFFFFFFFFFFFFFFFFFFFFFFFFFFFFFFFFFFFFFFFFFFFFFFFFFFFFFFFFFFFFFFFFFFFFFFF
310
FFFFFFFFFFFFFFFFFFFFFFFFFFFFFFFFFFFFFFFFFFFFFFFFFFFFFFFFFFFFFFFFFFFFFFFFFFFFFFFFFFFFFFFFFFFFFFFFFFFFFFFFFFFFFFFFFFFFFFFFFFFFFFFFFFFFFFFFFFFFFFFFFFFFFFFFFFFFFFFFFFFFFFFFFFFFFFFFFFFFFFFFFFFFFFFFFFFFFFFFFFFFFFFFFFFFFFFFFFFFFFFFFFFFFFFFFFFFFFFFFFFFFFFFFFFFFF
310
FFFFFFFFFFFFFFFFFFFFFFFFFFFFFFFFFFFFFFFFFFFFFFFFFFFFFFFFFFFFFFFFFFFFFFFFFFFFFFFFFFFFFFFFFFFFFFFFFFFFFFFFFFFFFFFF
  0
ENDTAB
  0
ENDSEC
  0
SECTION
  2
BLOCKS
  0
BLOCK
  5
1521
330
1503
100
AcDbEntity
  8
0
 62
     6
100
AcDbBlockBegin
  2
*MODEL_SPACE
 70
     0
 10
0.0
 20
0.0
 30
0.0
  3
*MODEL_SPACE
  1

  0
ENDBLK
  5
1522
330
1503
100
AcDbEntity
  8
0
 62
     6
100
AcDbBlockEnd
  0
BLOCK
  5
151F
330
1500
100
AcDbEntity
 67
     1
  8
0
 62
     6
100
AcDbBlockBegin
  2
*PAPER_SPACE
 70
     0
 10
0.0
 20
0.0
 30
0.0
  3
*PAPER_SPACE
  1

  0
ENDBLK
  5
1520
330
1500
100
AcDbEntity
 67
     1
  8
0
 62
     6
100
AcDbBlockEnd
  0
BLOCK
  5
2E12
330
2DBF
100
AcDbEntity
  8
0
100
AcDbBlockBegin
  2
A$C8333
 70
     0
 10
0.0
 20
0.0
 30
0.0
  3
A$C8333
  1

  0
LINE
  5
2DC0
330
2DBF
100
AcDbEntity
  8
03-KONTUR
 48
10.0
100
AcDbLine
 10
13.60141875872682
 20
176.9923580601042
 30
0.0
 11
18.27299163398061
 21
176.9923580601042
 31
0.0
1001
ACAD
1000
ASC_BOUNDS
1002
{
1070
    19
1005
0
1002
}
  0
LINE
  5
2DC1
330
2DBF
100
AcDbEntity
  8
03-KONTUR1
 48
10.0
100
AcDbLine
 10
15.36902134118418
 20
159.7923580601042
 30
0.0
 11
13.09411873967292
 21
176.85412757144
 31
0.0
  0
LINE
  5
2DC2
330
2DBF
100
AcDbEntity
  8
05-MITTELLINIE
 48
0.5
100
AcDbLine
 10
73.77726366969318
 20
159.7923580600709
 30
0.0
 11
3.052195836659166
 21
159.7923580600709
 31
0.0
  0
LINE
  5
2DC3
330
2DBF
100
AcDbEntity
  8
03-KONTUR1
 48
10.0
100
AcDbLine
 10
12.76375336049693
 20
159.7923580601041
 30
0.0
 11
10.75837987133365
 21
174.832659228826
 31
0.0
  0
LINE
  5
2DC4
330
2DBF
100
AcDbEntity
  8
03-KONTUR
 48
10.0
100
AcDbLine
 10
9.801671290420699
 20
174.642358060104
 30
0.0
 11
8.078517920661511
 21
174.6423580601042
 31
0.0
1001
ACAD
1000
ASC_BOUNDS
1002
{
1070
    19
1005
0
1002
}
  0
ARC
  5
2DC5
330
2DBF
100
AcDbEntity
  8
03-KONTUR
 48
10.0
100
AcDbCircle
 10
9.801671290420927
 20
177.1423580601043
 30
0.0
 40
2.5
100
AcDbArc
 50
270.0
 51
314.9999999999982
1001
ACAD
1000
ASC_BOUNDS
1002
{
1070
    19
1005
0
1002
}
  0
LINE
  5
2DC6
330
2DBF
100
AcDbEntity
  8
03-KONTUR
 48
10.0
100
AcDbLine
 10
11.56943824338725
 20
175.3745911071378
 30
0.0
 11
12.89431197754026
 21
176.6994648412907
 31
0.0
1001
ACAD
1000
ASC_BOUNDS
1002
{
1070
    19
1005
0
1002
}
  0
ARC
  5
2DC7
330
2DBF
100
AcDbEntity
  8
03-KONTUR
 48
10.0
100
AcDbCircle
 10
13.60141875872682
 20
175.9923580601042
 30
0.0
 40
1.0
100
AcDbArc
 50
90.0
 51
135.0
1001
ACAD
1000
ASC_BOUNDS
1002
{
1070
    19
1005
0
1002
}
  0
LINE
  5
2DC8
330
2DBF
100
AcDbEntity
  8
03-KONTUR
 48
10.0
100
AcDbLine
 10
50.30497214931995
 20
175.3745911071376
 30
0.0
 11
48.98009841516693
 21
176.6994648412905
 31
0.0
1001
ACAD
1000
ASC_BOUNDS
1002
{
1070
    19
1005
0
1002
}
  0
LINE
  5
2DC9
330
2DBF
100
AcDbEntity
  8
03-KONTUR1
 48
10.0
100
AcDbLine
 10
50.80596108116776
 20
159.7923580601039
 30
0.0
 11
48.52277714349987
 21
176.9162375926152
 31
0.0
  0
LINE
  5
2DCA
330
2DBF
100
AcDbEntity
  8
03-KONTUR1
 48
10.0
100
AcDbLine
 10
38.12140401053659
 20
159.7923580601039
 30
0.0
 11
36.11603052137354
 21
174.8326592288258
 31
0.0
  0
LINE
  5
2DCB
330
2DBF
100
AcDbEntity
  8
03-KONTUR1
 48
10.0
100
AcDbLine
 10
45.36902134118395
 20
159.7923580601039
 30
0.0
 11
43.09411873967269
 21
176.8541275714397
 31
0.0
  0
LINE
  5
2DCC
330
2DBF
100
AcDbEntity
  8
03-KONTUR1
 48
10.0
100
AcDbLine
 10
42.7637533604967
 20
159.7923580601039
 30
0.0
 11
40.75837987133342
 21
174.8326592288258
 31
0.0
  0
LINE
  5
2DCD
330
2DBF
100
AcDbEntity
  8
03-KONTUR1
 48
10.0
100
AcDbLine
 10
23.12140401053682
 20
159.7923580601042
 30
0.0
 11
21.11603052137377
 21
174.832659228826
 31
0.0
  0
LINE
  5
2DCE
330
2DBF
100
AcDbEntity
  8
03-KONTUR1
 48
10.0
100
AcDbLine
 10
20.80596108116799
 20
159.7923580601041
 30
0.0
 11
18.52277714350009
 21
176.9162375926155
 31
0.0
  0
LINE
  5
2DCF
330
2DBF
100
AcDbEntity
  8
03-KONTUR1
 48
10.0
100
AcDbLine
 10
27.76375336049671
 20
159.7923580601039
 30
0.0
 11
25.75837987133343
 21
174.8326592288258
 31
0.0
  0
LINE
  5
2DD0
330
2DBF
100
AcDbEntity
  8
03-KONTUR1
 48
10.0
100
AcDbLine
 10
30.36902134118395
 20
159.7923580601039
 30
0.0
 11
28.09411873967269
 21
176.8541275714397
 31
0.0
  0
LINE
  5
2DD1
330
2DBF
100
AcDbEntity
  8
03-KONTUR1
 48
10.0
100
AcDbLine
 10
35.80596108116776
 20
159.7923580601039
 30
0.0
 11
33.52277714349986
 21
176.9162375926152
 31
0.0
  0
LINE
  5
2DD2
330
2DBF
100
AcDbEntity
  8
03-KONTUR
 48
10.0
100
AcDbLine
 10
28.60141875872659
 20
176.9923580601039
 30
0.0
 11
33.27299163398038
 21
176.9923580601039
 31
0.0
1001
ACAD
1000
ASC_BOUNDS
1002
{
1070
    19
1005
0
1002
}
  0
LINE
  5
2DD3
330
2DBF
100
AcDbEntity
  8
03-KONTUR
 48
10.0
100
AcDbLine
 10
24.8016712904207
 20
174.642358060104
 30
0.0
 11
22.0727391022865
 21
174.6423580601043
 31
0.0
1001
ACAD
1000
ASC_BOUNDS
1002
{
1070
    19
1005
0
1002
}
  0
LINE
  5
2DD4
330
2DBF
100
AcDbEntity
  8
03-KONTUR
 48
10.0
100
AcDbLine
 10
20.30497214932017
 20
175.3745911071378
 30
0.0
 11
18.98009841516716
 21
176.6994648412907
 31
0.0
1001
ACAD
1000
ASC_BOUNDS
1002
{
1070
    19
1005
0
1002
}
  0
ARC
  5
2DD5
330
2DBF
100
AcDbEntity
  8
03-KONTUR
 48
10.0
100
AcDbCircle
 10
22.0727391022865
 20
177.1423580601043
 30
0.0
 40
2.5
100
AcDbArc
 50
225.0000000000018
 51
270.0
1001
ACAD
1000
ASC_BOUNDS
1002
{
1070
    19
1005
0
1002
}
  0
ARC
  5
2DD6
330
2DBF
100
AcDbEntity
  8
03-KONTUR
 48
10.0
100
AcDbCircle
 10
18.27299163398061
 20
175.9923580601042
 30
0.0
 40
1.0
100
AcDbArc
 50
45.0
 51
90.0
1001
ACAD
1000
ASC_BOUNDS
1002
{
1070
    19
1005
0
1002
}
  0
LINE
  5
2DD7
330
2DBF
100
AcDbEntity
  8
03-KONTUR
 48
10.0
100
AcDbLine
 10
26.56943824338702
 20
175.3745911071376
 30
0.0
 11
27.89431197754004
 21
176.6994648412905
 31
0.0
1001
ACAD
1000
ASC_BOUNDS
1002
{
1070
    19
1005
0
1002
}
  0
ARC
  5
2DD8
330
2DBF
100
AcDbEntity
  8
03-KONTUR
 48
10.0
100
AcDbCircle
 10
28.60141875872659
 20
175.9923580601039
 30
0.0
 40
1.0
100
AcDbArc
 50
90.0
 51
135.0
1001
ACAD
1000
ASC_BOUNDS
1002
{
1070
    19
1005
0
1002
}
  0
ARC
  5
2DD9
330
2DBF
100
AcDbEntity
  8
03-KONTUR
 48
10.0
100
AcDbCircle
 10
24.8016712904207
 20
177.142358060104
 30
0.0
 40
2.5
100
AcDbArc
 50
270.0
 51
314.9999999999982
1001
ACAD
1000
ASC_BOUNDS
1002
{
1070
    19
1005
0
1002
}
  0
ARC
  5
2DDA
330
2DBF
100
AcDbEntity
  8
03-KONTUR
 48
10.0
100
AcDbCircle
 10
39.8016712904207
 20
177.142358060104
 30
0.0
 40
2.5
100
AcDbArc
 50
270.0
 51
314.9999999999982
1001
ACAD
1000
ASC_BOUNDS
1002
{
1070
    19
1005
0
1002
}
  0
ARC
  5
2DDB
330
2DBF
100
AcDbEntity
  8
03-KONTUR
 48
10.0
100
AcDbCircle
 10
37.07273910228627
 20
177.142358060104
 30
0.0
 40
2.5
100
AcDbArc
 50
225.0000000000018
 51
270.0
1001
ACAD
1000
ASC_BOUNDS
1002
{
1070
    19
1005
0
1002
}
  0
LINE
  5
2DDC
330
2DBF
100
AcDbEntity
  8
03-KONTUR
 48
10.0
100
AcDbLine
 10
39.80167129042047
 20
174.6423580601038
 30
0.0
 11
37.07273910228627
 21
174.642358060104
 31
0.0
1001
ACAD
1000
ASC_BOUNDS
1002
{
1070
    19
1005
0
1002
}
  0
ARC
  5
2DDD
330
2DBF
100
AcDbEntity
  8
03-KONTUR
 48
10.0
100
AcDbCircle
 10
33.27299163398038
 20
175.9923580601039
 30
0.0
 40
1.0
100
AcDbArc
 50
45.0
 51
90.0
1001
ACAD
1000
ASC_BOUNDS
1002
{
1070
    19
1005
0
1002
}
  0
LINE
  5
2DDE
330
2DBF
100
AcDbEntity
  8
03-KONTUR
 48
10.0
100
AcDbLine
 10
35.30497214931995
 20
175.3745911071376
 30
0.0
 11
33.98009841516693
 21
176.6994648412905
 31
0.0
1001
ACAD
1000
ASC_BOUNDS
1002
{
1070
    19
1005
0
1002
}
  0
LINE
  5
2DDF
330
2DBF
100
AcDbEntity
  8
03-KONTUR
 48
10.0
100
AcDbLine
 10
43.60141875872659
 20
176.9923580601039
 30
0.0
 11
48.27299163398038
 21
176.9923580601039
 31
0.0
1001
ACAD
1000
ASC_BOUNDS
1002
{
1070
    19
1005
0
1002
}
  0
ARC
  5
2DE0
330
2DBF
100
AcDbEntity
  8
03-KONTUR
 48
10.0
100
AcDbCircle
 10
48.27299163398038
 20
175.9923580601039
 30
0.0
 40
1.0
100
AcDbArc
 50
45.0
 51
90.0
1001
ACAD
1000
ASC_BOUNDS
1002
{
1070
    19
1005
0
1002
}
  0
LINE
  5
2DE1
330
2DBF
100
AcDbEntity
  8
03-KONTUR
 48
10.0
100
AcDbLine
 10
41.56943824338703
 20
175.3745911071376
 30
0.0
 11
42.89431197754004
 21
176.6994648412905
 31
0.0
1001
ACAD
1000
ASC_BOUNDS
1002
{
1070
    19
1005
0
1002
}
  0
ARC
  5
2DE2
330
2DBF
100
AcDbEntity
  8
03-KONTUR
 48
10.0
100
AcDbCircle
 10
43.60141875872659
 20
175.9923580601039
 30
0.0
 40
1.0
100
AcDbArc
 50
90.0
 51
135.0
1001
ACAD
1000
ASC_BOUNDS
1002
{
1070
    19
1005
0
1002
}
  0
LINE
  5
2DE3
330
2DBF
100
AcDbEntity
  8
03-KONTUR1
 48
10.0
100
AcDbLine
 10
53.12140401053659
 20
159.7923580601039
 30
0.0
 11
51.11603052137354
 21
174.8326592288258
 31
0.0
  0
LINE
  5
2DE4
330
2DBF
100
AcDbEntity
  8
03-KONTUR1
 48
10.0
100
AcDbLine
 10
65.80596108116754
 20
159.7923580601037
 30
0.0
 11
63.52277714349964
 21
176.916237592615
 31
0.0
  0
LINE
  5
2DE5
330
2DBF
100
AcDbEntity
  8
03-KONTUR1
 48
10.0
100
AcDbLine
 10
60.36902134118372
 20
159.7923580601037
 30
0.0
 11
58.09411873967246
 21
176.8541275714395
 31
0.0
  0
LINE
  5
2DE6
330
2DBF
100
AcDbEntity
  8
03-KONTUR1
 48
10.0
100
AcDbLine
 10
57.76375336049648
 20
159.7923580601037
 30
0.0
 11
55.7583798713332
 21
174.8326592288256
 31
0.0
  0
LINE
  5
2DE7
330
2DBF
100
AcDbEntity
  8
03-KONTUR1
 48
10.0
100
AcDbLine
 10
68.07851792066173
 20
160.1140037341652
 30
0.0
 11
66.11603052137332
 21
174.8326592288256
 31
0.0
  0
LINE
  5
2DE8
330
2DBF
100
AcDbEntity
  8
03-KONTUR
 48
10.0
100
AcDbLine
 10
58.60141875872637
 20
176.9923580601037
 30
0.0
 11
63.27299163398016
 21
176.9923580601037
 31
0.0
1001
ACAD
1000
ASC_BOUNDS
1002
{
1070
    19
1005
0
1002
}
  0
ARC
  5
2DE9
330
2DBF
100
AcDbEntity
  8
03-KONTUR
 48
10.0
100
AcDbCircle
 10
58.60141875872637
 20
175.9923580601037
 30
0.0
 40
1.0
100
AcDbArc
 50
90.0
 51
135.0
1001
ACAD
1000
ASC_BOUNDS
1002
{
1070
    19
1005
0
1002
}
  0
LINE
  5
2DEA
330
2DBF
100
AcDbEntity
  8
03-KONTUR
 48
10.0
100
AcDbLine
 10
56.5694382433868
 20
175.3745911071374
 30
0.0
 11
57.89431197753981
 21
176.6994648412903
 31
0.0
1001
ACAD
1000
ASC_BOUNDS
1002
{
1070
    19
1005
0
1002
}
  0
ARC
  5
2DEB
330
2DBF
100
AcDbEntity
  8
03-KONTUR
 48
10.0
100
AcDbCircle
 10
54.80167129042047
 20
177.1423580601038
 30
0.0
 40
2.5
100
AcDbArc
 50
270.0
 51
314.9999999999982
1001
ACAD
1000
ASC_BOUNDS
1002
{
1070
    19
1005
0
1002
}
  0
ARC
  5
2DEC
330
2DBF
100
AcDbEntity
  8
03-KONTUR
 48
10.0
100
AcDbCircle
 10
52.07273910228628
 20
177.142358060104
 30
0.0
 40
2.5
100
AcDbArc
 50
225.0000000000018
 51
270.0
1001
ACAD
1000
ASC_BOUNDS
1002
{
1070
    19
1005
0
1002
}
  0
LINE
  5
2DED
330
2DBF
100
AcDbEntity
  8
03-KONTUR
 48
10.0
100
AcDbLine
 10
54.80167129042047
 20
174.6423580601038
 30
0.0
 11
52.07273910228628
 21
174.642358060104
 31
0.0
1001
ACAD
1000
ASC_BOUNDS
1002
{
1070
    19
1005
0
1002
}
  0
LINE
  5
2DEE
330
2DBF
100
AcDbEntity
  8
03-KONTUR
 48
10.0
100
AcDbLine
 10
68.07851792066163
 20
174.6423580601037
 30
0.0
 11
67.07273910228605
 21
174.6423580601038
 31
0.0
1001
ACAD
1000
ASC_BOUNDS
1002
{
1070
    19
1005
0
1002
}
  0
ARC
  5
2DEF
330
2DBF
100
AcDbEntity
  8
03-KONTUR
 48
10.0
100
AcDbCircle
 10
67.07273910228605
 20
177.1423580601038
 30
0.0
 40
2.5
100
AcDbArc
 50
225.0000000000018
 51
270.0
1001
ACAD
1000
ASC_BOUNDS
1002
{
1070
    19
1005
0
1002
}
  0
ARC
  5
2DF0
330
2DBF
100
AcDbEntity
  8
03-KONTUR
 48
10.0
100
AcDbCircle
 10
63.27299163398016
 20
175.9923580601037
 30
0.0
 40
1.0
100
AcDbArc
 50
45.0
 51
90.0
1001
ACAD
1000
ASC_BOUNDS
1002
{
1070
    19
1005
0
1002
}
  0
LINE
  5
2DF1
330
2DBF
100
AcDbEntity
  8
03-KONTUR
 48
10.0
100
AcDbLine
 10
65.30497214931973
 20
175.3745911071374
 30
0.0
 11
63.98009841516671
 21
176.6994648412903
 31
0.0
1001
ACAD
1000
ASC_BOUNDS
1002
{
1070
    19
1005
0
1002
}
  0
LINE
  5
2DF2
330
2DBF
100
AcDbEntity
  8
03-KONTUR
100
AcDbLine
 10
8.078517920661738
 20
134.4336476776039
 30
0.0
 11
8.078517920661511
 21
174.6423580601042
 31
0.0
1001
ACAD
1000
ASC_BOUNDS
1002
{
1070
    19
1002
}
  0
CIRCLE
  5
2DF3
330
2DBF
100
AcDbEntity
  8
03-KONTUR
100
AcDbCircle
 10
164.4292036529529
 20
159.7923580600709
 30
0.0
 40
14.85
  0
ARC
  5
2DF4
330
2DBF
100
AcDbEntity
  8
08-GEWINDE
100
AcDbCircle
 10
164.4292036529529
 20
159.7923580600709
 30
0.0
 40
17.20000000003284
100
AcDbArc
 50
80.87940891493159
 51
353.2723690273793
  0
LINE
  5
2DF5
330
2DBF
100
AcDbEntity
  8
09-BEMAßUNG
 62
     6
100
AcDbLine
 10
130.4339757212927
 20
124.6583299163717
 30
0.0
 11
152.029480358618
 21
146.9170667117775
 31
0.0
  0
SOLID
  5
2DF6
330
2DBF
100
AcDbEntity
  8
09-BEMAßUNG
 62
     7
100
AcDbTrace
 10
152.0294803586181
 20
146.9170667117775
 30
0.0
 11
152.8675223879019
 21
150.2782697043313
 31
0.0
 12
155.3593885520881
 22
147.8719025212553
 32
0.0
 13
155.3593885520881
 23
147.8719025212553
 33
0.0
  0
TEXT
  5
2DF7
330
2DBF
100
AcDbEntity
  8
09-BEMAßUNG
 48
10.0
100
AcDbText
 10
120.6896105920715
 20
122.9685775269222
 30
0.0
 40
3.5
  1
A
 41
0.8
 72
     4
 11
121.8896105920715
 21
124.7185775269222
 31
0.0
100
AcDbText
  0
LWPOLYLINE
  5
2DF8
330
2DBF
100
AcDbEntity
  8
09-BEMAßUNG
 48
10.0
100
AcDbPolyline
 90
        4
 70
     1
 43
0.0
 10
124.5217703639663
 20
127.4266622229147
 10
118.8649161144738
 20
127.4266622229147
 10
118.8649161144738
 20
121.7698079734222
 10
124.5217703639663
 20
121.7698079734222
  0
LINE
  5
2DFE
330
2DBF
100
AcDbEntity
  8
09-BEMAßUNG
 62
     6
100
AcDbLine
 10
124.5901891063522
 20
124.6583299163717
 30
0.0
 11
130.4339757212927
 21
124.6583299163717
 31
0.0
  0
MTEXT
  5
2DFF
330
2DBF
100
AcDbEntity
  8
09-BEMAßUNG
 48
10.0
100
AcDbMText
 10
230.8447686108645
 20
193.4081078047764
 30
0.0
 40
3.5
 41
0.0
 71
     7
 72
     5
  1
{Gewindeform, linksgängig}\P{nach Zeichnung}
 73
     1
 44
1.0
  0
MTEXT
  5
2E00
330
2DBF
100
AcDbEntity
  8
0
  6
ByBlock
 62
     1
100
AcDbMText
 10
217.5199414024851
 20
159.7923580600709
 30
0.0
 40
3.5
 41
0.0
 71
     5
 72
     5
  1
{\U+220529.7{\H2.450000;\S+0.20^  0.00;}}
 11
0.0
 21
1.0
 31
0.0
 73
     1
 44
1.0
  0
LINE
  5
2E01
330
2DBF
100
AcDbEntity
  8
0
  6
ByBlock
 62
     6
100
AcDbLine
 10
213.477084773088
 20
171.5923580600708
 30
0.0
 11
213.477084773088
 21
147.9923580600709
 31
0.0
  0
MTEXT
  5
2E02
330
2DBF
100
AcDbEntity
  8
0
  6
ByBlock
 62
     1
100
AcDbMText
 10
209.6187514397546
 20
159.7923580600709
 30
0.0
 40
3.5
 41
0.0
 71
     5
 72
     5
  1
{%%cKern}
 11
0.0000000000000002
 21
1.0
 31
0.0
 73
     1
 44
1.0
  0
LINE
  5
2E03
330
2DBF
100
AcDbEntity
  8
0
  6
ByBlock
 62
     6
100
AcDbLine
 10
164.4292036529529
 20
144.9423580600709
 30
0.0
 11
247.4858567036618
 21
144.9423580600709
 31
0.0
  0
SOLID
  5
2E04
330
2DBF
100
AcDbEntity
  8
0
  6
ByBlock
 62
     6
100
AcDbTrace
 10
212.7479181064213
 20
148.9423580600709
 30
0.0
 11
214.0812514397546
 21
148.9423580600709
 31
0.0
 12
213.4145847730879
 22
144.9423580600709
 32
0.0
 13
213.4145847730879
 23
144.9423580600709
 33
0.0
  0
LINE
  5
2E05
330
2DBF
100
AcDbEntity
  8
0
  6
ByBlock
 62
     6
 48
10.0
100
AcDbLine
 10
213.4531551223199
 20
144.9423580600709
 30
0.0
 11
213.4531551223199
 21
146.9673580600708
 31
0.0
  0
LINE
  5
2E06
330
2DBF
100
AcDbEntity
  8
2NNHHGF
  6
AUSGEZOGEN
 62
     1
100
AcDbLine
 10
241.4878786799826
 20
144.8310429007459
 30
0.0
 11
246.4475541074622
 21
154.269527788745
 31
0.0
  0
LINE
  5
2E07
330
2DBF
100
AcDbEntity
  8
2NNHHGF
  6
AUSGEZOGEN
 62
     1
100
AcDbLine
 10
243.4195417412229
 20
148.5070843834401
 30
0.0
 11
239.2941760871027
 21
148.5070843834401
 31
0.0
  0
LINE
  5
2E08
330
2DBF
100
AcDbEntity
  8
2NNHHGF
  6
AUSGEZOGEN
 62
     1
100
AcDbLine
 10
239.2941760871027
 20
148.5070843834401
 30
0.0
 11
241.4878786799826
 21
144.8310429007459
 31
0.0
  0
TEXT
  5
2E09
330
2DBF
100
AcDbEntity
  8
2NNHHGF
 62
     1
100
AcDbText
 10
231.7380728279822
 20
150.3416628329166
 30
0.0
 40
2.5
  1
Ra 12,5
 41
0.7291666666383891
 72
     5
 11
242.8491839386624
 21
150.3416628329166
 31
0.0
100
AcDbText
  0
MTEXT
  5
2E0A
330
2DBF
100
AcDbEntity
  8
09-BEMAßUNG
 48
10.0
100
AcDbMText
 10
230.8447686108645
 20
176.3120704658111
 30
0.0
 40
3.5
 41
0.0
 71
     7
 72
     5
  1
{Zeichn.Nr./drawing 30L15}{-Zbk-0}
 73
     1
 44
1.0
  0
LINE
  5
2E0B
330
2DBF
100
AcDbEntity
  8
0
  6
ByBlock
 62
     6
 48
10.0
100
AcDbLine
 10
213.5156551223199
 20
181.8255568900444
 30
0.0
 11
302.8205259815354
 21
181.8255568900444
 31
0.0
  0
MTEXT
  5
2E0C
330
2DBF
100
AcDbEntity
  8
09-BEMAßUNG
 48
10.0
100
AcDbMText
 10
230.8447686108645
 20
182.5437789036192
 30
0.0
 40
3.5
 41
0.0
 71
     7
 72
     5
  1
{thread form, lefthanded}\P{acc. drawing data}
 73
     1
 44
1.0
  0
LINE
  5
2E0D
330
2DBF
100
AcDbEntity
  8
0
  6
ByBlock
 62
     6
 48
10.0
100
AcDbLine
 10
213.5156551223199
 20
172.6770601957147
 30
0.0
 11
213.5156551223199
 21
181.8255568900444
 31
0.0
  0
LINE
  5
2E0E
330
2DBF
100
AcDbEntity
  8
0
  6
ByBlock
 62
     6
100
AcDbLine
 10
164.4292036529529
 20
174.6423580600709
 30
0.0
 11
214.8825046933635
 21
174.6423580600709
 31
0.0
  0
SOLID
  5
2E0F
330
2DBF
100
AcDbEntity
  8
0
  6
ByBlock
 62
     6
100
AcDbTrace
 10
212.7479181064213
 20
170.6423580600709
 30
0.0
 11
214.0812514397546
 21
170.6423580600709
 31
0.0
 12
213.4145847730879
 22
174.6423580600709
 32
0.0
 13
213.4145847730879
 23
174.6423580600709
 33
0.0
  0
LINE
  5
2E10
330
2DBF
100
AcDbEntity
  8
05-MITTELLINIE
 48
0.5
100
AcDbLine
 10
132.3304397998238
 20
159.7923580600709
 30
0.0
 11
196.0879561193755
 21
159.7923580600709
 31
0.0
  0
LINE
  5
2E11
330
2DBF
100
AcDbEntity
  8
05-MITTELLINIE
 48
0.5
100
AcDbLine
 10
164.4292036529529
 20
195.9602853999333
 30
0.0
 11
164.4292036529529
 21
123.7648932737664
 31
0.0
  0
ENDBLK
  5
2E13
330
2DBF
100
AcDbEntity
  8
0
100
AcDbBlockEnd
  0
BLOCK
  5
2EC8
330
2EAF
100
AcDbEntity
  8
0
100
AcDbBlockBegin
  2
STABMATERIAL
 70
     0
 10
0.0
 20
0.0
 30
0.0
  3
STABMATERIAL
  1

  0
TEXT
  5
2EB0
330
2EAF
100
AcDbEntity
  8
10-TEXT25
 48
10.0
100
AcDbText
 10
47.78842501891904
 20
53.64560262383786
 30
0.0
 40
2.5
  1
bzw. nach Zeichnungsangabe
 41
0.8
 11
47.78842501891904
 21
52.81226929050453
 31
0.0
100
AcDbText
 73
     1
  0
TEXT
  5
2EB1
330
2EAF
100
AcDbEntity
  8
10-TEXT25
 48
10.0
100
AcDbText
 10
47.78842501891904
 20
61.6781672521294
 30
0.0
 40
2.5
  1
nach DIN ISO 2768-1 Klasse c
 41
0.8
 11
47.78842501891904
 21
60.84483391879607
 31
0.0
100
AcDbText
 73
     1
  0
TEXT
  5
2EB2
330
2EAF
100
AcDbEntity
  8
10-TEXT25
 48
10.0
100
AcDbText
 10
56.8713709220317
 20
57.60953260209401
 30
0.0
 40
2.5
  1
DIN ISO 2768-2 Klasse L
 41
0.8
 11
56.8713709220317
 21
56.77619926876068
 31
0.0
100
AcDbText
 73
     1
  0
TEXT
  5
2EB3
330
2EAF
100
AcDbEntity
  8
10-TEXT25
 48
10.0
100
AcDbText
 10
61.05293601863934
 20
26.09086299059796
 30
0.0
 40
2.5
  1
DIN ISO 2768-2 class L
 41
0.8
 11
61.05293601863934
 21
25.25752965726463
 31
0.0
100
AcDbText
 73
     1
  0
TEXT
  5
2EB4
330
2EAF
100
AcDbEntity
  8
10-TEXT25
 48
10.0
100
AcDbText
 10
47.91879578757391
 20
30.00682809499536
 30
0.0
 40
2.5
  1
acc. to DIN ISO 2768-1 class c
 41
0.8
 11
47.91879578757391
 21
29.17349476166203
 31
0.0
100
AcDbText
 73
     1
  0
TEXT
  5
2EB5
330
2EAF
100
AcDbEntity
  8
10-TEXT25
 48
10.0
100
AcDbText
 10
47.91879722290457
 20
22.07862588288238
 30
0.0
 40
2.5
  1
and/or acc. to drawing data
 41
0.8
 11
47.91879722290457
 21
21.24529254954905
 31
0.0
100
AcDbText
 73
     1
  0
TEXT
  5
2EB6
330
2EAF
100
AcDbEntity
  8
10-TEXT25
 48
10.0
100
AcDbText
 10
47.78905873938913
 20
17.90019502925197
 30
0.0
 40
2.5
  1
R 2,0
 41
0.8
 11
47.78905873938913
 21
17.06686169591864
 31
0.0
100
AcDbText
 73
     1
  0
TEXT
  5
2EB7
330
2EAF
100
AcDbEntity
  8
10-TEXT25
 48
10.0
100
AcDbText
 10
4.625718191550845
 20
17.69524353876234
 30
0.0
 40
2.5
  1
not dimensioned radii:
 41
0.8
 11
4.625718191550845
 21
16.86191020542901
 31
0.0
100
AcDbText
 73
     1
  0
TEXT
  5
2EB8
330
2EAF
100
AcDbEntity
  8
10-TEXT25
 48
10.0
100
AcDbText
 10
4.869549125170237
 20
9.888749680664622
 30
0.0
 40
2.5
  1
thread:
 41
0.8
 11
4.869549125170237
 21
9.055416347331288
 31
0.0
100
AcDbText
 73
     1
  0
TEXT
  5
2EB9
330
2EAF
100
AcDbEntity
  8
10-TEXT25
 48
10.0
100
AcDbText
 10
4.737540972546526
 20
5.831646974565463
 30
0.0
 40
2.5
  1
surface:
 41
0.8
 11
4.737540972546526
 21
4.99831364123213
 31
0.0
100
AcDbText
 73
     1
  0
TEXT
  5
2EBA
330
2EAF
100
AcDbEntity
  8
10-TEXT25
 48
10.0
100
AcDbText
 10
4.713723626634532
 20
13.97312144838527
 30
0.0
 40
2.5
  1
outer edges:
 41
0.8
 11
4.713723626634532
 21
13.13978811505194
 31
0.0
100
AcDbText
 73
     1
  0
TEXT
  5
2EBB
330
2EAF
100
AcDbEntity
  8
10-TEXT25
 48
10.0
100
AcDbText
 10
47.93145501451919
 20
9.888749680664622
 30
0.0
 40
2.5
  1
deburred
 41
0.8
 11
47.93145501451919
 21
9.055416347331288
 31
0.0
100
AcDbText
 73
     1
  0
TEXT
  5
2EBC
330
2EAF
100
AcDbEntity
  8
10-TEXT25
 48
10.0
100
AcDbText
 10
47.7890587393889
 20
5.831646974565463
 30
0.0
 40
2.5
  1
rough
 41
0.8
 11
47.7890587393889
 21
4.99831364123213
 31
0.0
100
AcDbText
 73
     1
  0
TEXT
  5
2EBD
330
2EAF
100
AcDbEntity
  8
10-TEXT25
 48
10.0
100
AcDbText
 10
47.93145644984986
 20
14.17807293887491
 30
0.0
 40
2.5
  1
deburred
 41
0.8
 11
47.93145644984986
 21
13.34473960554157
 31
0.0
100
AcDbText
 73
     1
  0
TEXT
  5
2EBE
330
2EAF
100
AcDbEntity
  8
10-TEXT25
 48
10.0
100
AcDbText
 10
4.793819492296506
 20
41.16075011904952
 30
0.0
 40
2.5
  1
Gewindeanfang/-ende:
 41
0.8
 11
4.793819492296506
 21
40.32741678571619
 31
0.0
100
AcDbText
 73
     1
  0
TEXT
  5
2EBF
330
2EAF
100
AcDbEntity
  8
10-TEXT25
 48
10.0
100
AcDbText
 10
4.707255205368028
 20
49.13076651838352
 30
0.0
 40
2.5
  1
nicht vermaßte Radien:
 41
0.8
 11
4.707255205368028
 21
48.29743318505018
 31
0.0
100
AcDbText
 73
     1
  0
TEXT
  5
2EC0
330
2EAF
100
AcDbEntity
  8
10-TEXT25
 48
10.0
100
AcDbText
 10
4.667334036968782
 20
30.00682809499536
 30
0.0
 40
2.5
  1
manufacturing tolerances:
 41
0.8
 11
4.667334036968782
 21
29.17349476166203
 31
0.0
100
AcDbText
 73
     1
  0
TEXT
  5
2EC1
330
2EAF
100
AcDbEntity
  8
10-TEXT25
 48
10.0
100
AcDbText
 10
5.159512333665816
 20
45.13293175443023
 30
0.0
 40
2.5
  1
Außenkanten:
 41
0.8
 11
5.159512333665816
 21
44.2995984210969
 31
0.0
100
AcDbText
 73
     1
  0
TEXT
  5
2EC2
330
2EAF
100
AcDbEntity
  8
10-TEXT25
 48
10.0
100
AcDbText
 10
4.793819492296506
 20
37.31971617095402
 30
0.0
 40
2.5
  1
Oberfläche:
 41
0.8
 11
4.793819492296506
 21
36.48638283762068
 31
0.0
100
AcDbText
 73
     1
  0
TEXT
  5
2EC3
330
2EAF
100
AcDbEntity
  8
10-TEXT25
 48
10.0
100
AcDbText
 10
47.94348052099439
 20
45.33788324491987
 30
0.0
 40
2.5
  1
entgratet
 41
0.8
 11
47.94348052099439
 21
44.50454991158653
 31
0.0
100
AcDbText
 73
     1
  0
TEXT
  5
2EC4
330
2EAF
100
AcDbEntity
  8
10-TEXT25
 48
10.0
100
AcDbText
 10
47.94348052099439
 20
41.16075011904952
 30
0.0
 40
2.5
  1
entgratet
 41
0.8
 11
47.94348052099439
 21
40.32741678571619
 31
0.0
100
AcDbText
 73
     1
  0
TEXT
  5
2EC5
330
2EAF
100
AcDbEntity
  8
10-TEXT25
 48
10.0
100
AcDbText
 10
47.80108424586432
 20
37.31971617095402
 30
0.0
 40
2.5
  1
roh
 41
0.8
 11
47.80108424586432
 21
36.48638283762068
 31
0.0
100
AcDbText
 73
     1
  0
TEXT
  5
2EC6
330
2EAF
100
AcDbEntity
  8
10-TEXT25
 48
10.0
100
AcDbText
 10
47.80108281053367
 20
49.33571800887315
 30
0.0
 40
2.5
  1
R 2,0
 41
0.8
 11
47.80108281053367
 21
48.50238467553982
 31
0.0
100
AcDbText
 73
     1
  0
TEXT
  5
2EC7
330
2EAF
100
AcDbEntity
  8
10-TEXT25
 48
10.0
100
AcDbText
 10
4.604637967845519
 20
61.6781672521294
 30
0.0
 40
2.5
  1
Fertigungstoleranzen:
 41
0.8
 11
4.604637967845519
 21
60.84483391879607
 31
0.0
100
AcDbText
 73
     1
  0
ENDBLK
  5
2EC9
330
2EAF
100
AcDbEntity
  8
0
100
AcDbBlockEnd
  0
BLOCK
  5
2ECF
330
2ECA
100
AcDbEntity
  8
0
100
AcDbBlockBegin
  2
A
 70
     0
 10
0.0
 20
0.0
 30
0.0
  3
A
  1

  0
LINE
  5
2ECB
330
2ECA
100
AcDbEntity
  8
09-INDIZEES
 62
     6
 48
10.0
100
AcDbLine
 10
3.454424660843073
 20
0.0
 30
0.0
 11
-3.454424660843187
 21
0.0
 31
0.0
  0
LINE
  5
2ECC
330
2ECA
100
AcDbEntity
  8
09-INDIZEES
 62
     6
 48
10.0
100
AcDbLine
 10
3.454424660843073
 20
0.0
 30
0.0
 11
-0.0000000000002274
 21
6.913801590111916
 31
0.0
  0
LINE
  5
2ECD
330
2ECA
100
AcDbEntity
  8
09-INDIZEES
 62
     6
 48
10.0
100
AcDbLine
 10
-0.0000000000002274
 20
6.913801590111916
 30
0.0
 11
-3.454424660843187
 21
0.0
 31
0.0
  0
MTEXT
  5
2ECE
330
2ECA
100
AcDbEntity
  8
09-INDIZEES
  6
ByBlock
 62
     1
 48
10.0
100
AcDbMText
 10
-0.1249700480950651
 20
2.9110834848791
 30
0.0
 40
3.75
 41
0.0
 71
     5
 72
     5
  1
{a}
 73
     1
 44
1.0
  0
ENDBLK
  5
2ED0
330
2ECA
100
AcDbEntity
  8
0
100
AcDbBlockEnd
  0
BLOCK
  5
2ED7
330
2ED1
100
AcDbEntity
  8
0
100
AcDbBlockBegin
  2
S355J2G3GEZOGEN
 70
     0
 10
0.0
 20
0.0
 30
0.0
  3
S355J2G3GEZOGEN
  1

  0
TEXT
  5
2ED2
330
2ED1
100
AcDbEntity
  8
02-SCHRIFTKOPF
 48
1.5
100
AcDbText
 10
-0.3417967410029519
 20
11.34673648351842
 30
0.0
 40
3.5
  1
Material: S355J2G3 gezogen nach DIN EN 10 277-2
 41
0.8
 72
     1
 11
58.19153659233041
 21
11.34673648351842
 31
0.0
100
AcDbText
  0
TEXT
  5
2ED3
330
2ED1
100
AcDbEntity
  8
10-TEXT25
 48
10.0
100
AcDbText
 10
45.43108616084293
 20
4.352570611541395
 30
0.0
 40
3.5
  1
, entspricht Zugfestigkeit >580 N/mm
 41
0.8
100
AcDbText
  0
TEXT
  5
2ED4
330
2ED1
100
AcDbEntity
  8
10-TEXT25
 48
10.0
100
AcDbText
 10
-0.5066108293111781
 20
4.362011767019248
 30
-3.51
 40
3.5
  1
HBW 10/3000
 41
0.8
 72
     2
 11
29.76005583735548
 21
3.195345100352582
 31
-3.51
100
AcDbText
 73
     1
  0
TEXT
  5
2ED5
330
2ED1
100
AcDbEntity
  8
10-TEXT25
 48
10.0
100
AcDbText
 10
32.91089453441129
 20
4.35468266367061
 30
-3.51
 40
3.5
  1
>172
 41
0.8
 72
     2
 11
43.71089453441129
 21
3.188015997003944
 31
-3.51
100
AcDbText
 73
     1
  0
TEXT
  5
2ED6
330
2ED1
100
AcDbEntity
  8
10-TEXT25
 48
10.0
100
AcDbText
 10
130.5918091579152
 20
7.107591654000756
 30
0.0
 40
2.0
  1
2
 41
0.8
100
AcDbText
  0
ENDBLK
  5
2ED8
330
2ED1
100
AcDbEntity
  8
0
100
AcDbBlockEnd
  0
BLOCK
  5
2EE3
330
2ED9
100
AcDbEntity
  8
0
100
AcDbBlockBegin
  2
Adresse
 70
     0
 10
0.0
 20
0.0
 30
0.0
  3
Adresse
  1

  0
TEXT
  5
2EDA
330
2ED9
100
AcDbEntity
  8
02-SCHRIFTKOPF
 62
     6
 48
1.5
100
AcDbText
 10
822.5884360574356
 20
-74.21208536970673
 30
0.0
 40
1.8
  1
e-mail
100
AcDbText
  0
TEXT
  5
2EDB
330
2ED9
100
AcDbEntity
  8
02-SCHRIFTKOPF
 62
     6
 48
1.5
100
AcDbText
 10
822.5565317960089
 20
-70.4679584817205
 30
0.0
 40
1.8
  1
Fax.
100
AcDbText
  0
TEXT
  5
2EDC
330
2ED9
100
AcDbEntity
  8
02-SCHRIFTKOPF
 62
     6
 48
1.5
100
AcDbText
 10
822.5884360574356
 20
-65.89663912540763
 30
0.0
 40
1.8
  1
Tel.
100
AcDbText
  0
TEXT
  5
2EDD
330
2ED9
100
AcDbEntity
  8
02-SCHRIFTKOPF
 62
     6
 48
1.5
100
AcDbText
 10
822.5965191984011
 20
-58.19448572491032
 30
0.0
 40
2.0
  1
Stahlwerk Annahütte Systemtechnik GmbH
 41
0.7
100
AcDbText
  0
TEXT
  5
2EDE
330
2ED9
100
AcDbEntity
  8
02-SCHRIFTKOPF
 62
     6
 48
1.5
100
AcDbText
 10
822.7422992237942
 20
-61.74317405985309
 30
0.0
 40
1.8
  1
D-83404 Hammerau
 41
0.8
100
AcDbText
  0
TEXT
  5
2EDF
330
2ED9
100
AcDbEntity
  8
02-SCHRIFTKOPF
 62
     6
 48
1.5
100
AcDbText
 10
836.2715555495903
 20
-65.89663912540763
 30
0.0
 40
1.8
  1
+49/(0)86 54-487-0
 41
0.9
100
AcDbText
  0
TEXT
  5
2EE0
330
2ED9
100
AcDbEntity
  8
02-SCHRIFTKOPF
 62
     6
 48
1.5
100
AcDbText
 10
836.2777794449742
 20
-70.31381295013133
 30
0.0
 40
1.8
  1
+49/(0)86 54-487-960
 41
0.9
100
AcDbText
  0
TEXT
  5
2EE1
330
2ED9
100
AcDbEntity
  8
02-SCHRIFTKOPF
 62
     6
 48
1.5
100
AcDbText
 10
835.4801734066787
 20
-74.21208536970673
 30
0.0
 40
1.8
  1
stahlwerk@annahuette.com
 41
0.9
100
AcDbText
  0
TEXT
  5
2EE2
330
2ED9
100
AcDbEntity
  8
02-SCHRIFTKOPF
 62
     6
 48
1.5
100
AcDbText
 10
835.4801734066787
 20
-77.43336069685844
 30
0.0
 40
1.8
  1
www.annahuette.com
 41
0.9
100
AcDbText
  0
ENDBLK
  5
2EE4
330
2ED9
100
AcDbEntity
  8
0
100
AcDbBlockEnd
  0
ENDSEC
  0
SECTION
  2
ENTITIES
  0
LINE
  5
2407
330
1503
100
AcDbEntity
  8
03-KONTUR
100
AcDbLine
 10
682.1762717473038
 20
21.21456256238423
 30
0.0
 11
685.6850748243168
 21
24.72336563939779
 31
0.0
  0
LINE
  5
25D0
330
1503
100
AcDbEntity
  8
03-KONTUR
100
AcDbLine
 10
685.6850748243173
 20
75.440786404333
 30
0.0
 11
685.6850748243173
 21
64.93207602189795
 31
0.0
1001
ACAD
1000
ASC_BOUNDS
1002
{
1070
    19
1005
2E9B
1002
}
  0
LINE
  5
26A9
330
1503
100
AcDbEntity
  8
03-KONTUR
100
AcDbLine
 10
685.6850748243173
 20
64.93207602189795
 30
0.0
 11
685.6850748243168
 21
24.72336563939779
 31
0.0
  0
LINE
  5
2D32
330
1503
100
AcDbEntity
  8
03-KONTUR
100
AcDbLine
 10
682.1762717473037
 20
78.94958948134713
 30
0.0
 11
659.1938779013307
 21
78.94958948134713
 31
0.0
1001
ACAD
1000
ASC_BOUNDS
1002
{
1070
    19
1005
2E9B
1002
}
  0
LINE
  5
2D33
330
1503
100
AcDbEntity
  8
03-KONTUR
100
AcDbLine
 10
681.8175613648341
 20
35.58581929212521
 30
0.0
 11
659.5525882838002
 21
35.58581929212521
 31
0.0
  0
LINE
  5
2D34
330
1503
100
AcDbEntity
  8
03-KONTUR
100
AcDbLine
 10
682.1762717473038
 20
21.21456256238423
 30
0.0
 11
659.1938779013307
 21
21.21456256238423
 31
0.0
  0
ARC
  5
2D38
330
1503
100
AcDbEntity
  8
03-KONTUR
100
AcDbCircle
 10
677.0760659540235
 20
28.40019092725473
 30
0.0
 40
8.609008870293351
100
AcDbArc
 50
303.4191493237479
 51
56.58085067625208
  0
ARC
  5
2D39
330
1503
100
AcDbEntity
  8
03-KONTUR
100
AcDbCircle
 10
654.140450707881
 20
50.73394765699535
 30
0.0
 40
31.55135888160662
100
AcDbArc
 50
331.3074021801255
 51
358.8161476242236
  0
LINE
  5
2D3A
330
1503
100
AcDbEntity
  8
03-KONTUR
100
AcDbLine
 10
682.1762717473037
 20
78.94958948134713
 30
0.0
 11
685.6850748243173
 21
75.440786404333
 31
0.0
1001
ACAD
1000
ASC_BOUNDS
1002
{
1070
    19
1005
2E9B
1002
}
  0
LINE
  5
2D3B
330
1503
100
AcDbEntity
  8
03-KONTUR
100
AcDbLine
 10
659.1938779013307
 20
78.94958948134713
 30
0.0
 11
655.6850748243166
 21
75.44078640433241
 31
0.0
1001
ACAD
1000
ASC_BOUNDS
1002
{
1070
    19
1005
2E9B
1002
}
  0
LINE
  5
2D3C
330
1503
100
AcDbEntity
  8
03-KONTUR
100
AcDbLine
 10
659.1938779013307
 20
21.21456256238423
 30
0.0
 11
655.6850748243171
 21
24.7233656393985
 31
0.0
  0
ARC
  5
2D3D
330
1503
100
AcDbEntity
  8
03-KONTUR
100
AcDbCircle
 10
687.2296989407534
 20
50.73394765699542
 30
0.0
 40
31.55135888160662
100
AcDbArc
 50
181.1838523757763
 51
208.6925978198745
  0
ARC
  5
2D3E
330
1503
100
AcDbEntity
  8
03-KONTUR
100
AcDbCircle
 10
664.2940836946109
 20
28.4001909272548
 30
0.0
 40
8.609008870293351
100
AcDbArc
 50
123.4191493237479
 51
236.5808506762521
  0
LINE
  5
2D7F
330
1503
100
AcDbEntity
  8
03-KONTUR
100
AcDbLine
 10
655.6850748243172
 20
64.93207602189819
 30
0.0
 11
655.6850748243171
 21
24.7233656393985
 31
0.0
  0
LINE
  5
2D80
330
1503
100
AcDbEntity
  8
03-KONTUR
100
AcDbLine
 10
655.6850748243173
 20
75.440786404333
 30
0.0
 11
655.6850748243173
 21
64.93207602189819
 31
0.0
1001
ACAD
1000
ASC_BOUNDS
1002
{
1070
    19
1005
2E9B
1002
}
  0
ARC
  5
2F35
330
1503
100
AcDbEntity
  8
03-KONTUR
100
AcDbCircle
 10
687.2296989407535
 20
49.43020438673594
 30
0.0
 40
31.55135888160662
100
AcDbArc
 50
151.3074021801293
 51
178.8161476242275
  0
ARC
  5
2F36
330
1503
100
AcDbEntity
  8
03-KONTUR
100
AcDbCircle
 10
654.140450707881
 20
49.4302043867338
 30
0.0
 40
31.55135888160662
100
AcDbArc
 50
1.18385237578016
 51
28.69259781987833
  0
ARC
  5
2F37
330
1503
100
AcDbEntity
  8
03-KONTUR
100
AcDbCircle
 10
664.2940836946095
 20
71.76396111647502
 30
0.0
 40
8.609008870293351
100
AcDbArc
 50
123.4191493237517
 51
236.5808506762559
  0
ARC
  5
2F38
330
1503
100
AcDbEntity
  8
03-KONTUR
100
AcDbCircle
 10
677.0760659540221
 20
71.76396111647594
 30
0.0
 40
8.609008870293351
100
AcDbArc
 50
303.4191493237517
 51
56.58085067625596
  0
LINE
  5
2F39
330
1503
100
AcDbEntity
  8
03-KONTUR
100
AcDbLine
 10
681.8175613648332
 20
64.57833275160578
 30
0.0
 11
659.5525882837993
 21
64.57833275160429
 31
0.0
  0
ENDSEC
  0
SECTION
  2
OBJECTS
  0
DICTIONARY
  5
14F7
330
0
100
AcDbDictionary
281
     1
  3
ACAD_GROUP
350
14F8
  3
ACAD_LAYOUT
350
2EA8
  3
ACAD_MLINESTYLE
350
14F9
  3
ACAD_PLOTSETTINGS
350
2EA9
  3
ACAD_PLOTSTYLENAME
350
2EA6
  0
DICTIONARY
  5
14F8
102
{ACAD_REACTORS
330
14F7
102
}
330
14F7
100
AcDbDictionary
281
     1
  0
DICTIONARY
  5
2EA8
102
{ACAD_REACTORS
330
14F7
102
}
330
14F7
100
AcDbDictionary
281
     1
  3
Layout1
350
2EAB
  3
Model
350
2EAA
  0
DICTIONARY
  5
14F9
102
{ACAD_REACTORS
330
14F7
102
}
330
14F7
100
AcDbDictionary
281
     1
  3
STANDARD
350
1506
  0
DICTIONARY
  5
2EA9
102
{ACAD_REACTORS
330
14F7
102
}
330
14F7
100
AcDbDictionary
281
     1
  0
ACDBDICTIONARYWDFLT
  5
2EA6
102
{ACAD_REACTORS
330
14F7
102
}
330
14F7
100
AcDbDictionary
281
     1
  3
Normal
350
2EA7
100
AcDbDictionaryWithDefault
340
2EA7
  0
LAYOUT
  5
2EAB
102
{ACAD_REACTORS
330
2EA8
102
}
330
2EA8
100
AcDbPlotSettings
  1

  2
Kyocera Mita FS-1000+
  4

  6

 40
0.0
 41
0.0
 42
0.0
 43
0.0
 44
0.0
 45
0.0
 46
0.0
 47
0.0
 48
0.0
 49
0.0
140
0.0
141
0.0
142
1.0
143
1.0
 70
   688
 72
     0
 73
     0
 74
     5
  7

 75
    16
147
1.0
148
0.0
149
0.0
100
AcDbLayout
  1
Layout1
 70
     1
 71
     1
 10
0.0
 20
0.0
 11
12.0
 21
9.0
 12
0.0
 22
0.0
 32
0.0
 14
1.000000000000000E+20
 24
1.000000000000000E+20
 34
1.000000000000000E+20
 15
-1.000000000000000E+20
 25
-1.000000000000000E+20
 35
-1.000000000000000E+20
146
0.0
 13
0.0
 23
0.0
 33
0.0
 16
1.0
 26
0.0
 36
0.0
 17
0.0
 27
1.0
 37
0.0
 76
     0
330
1500
  0
LAYOUT
  5
2EAA
102
{ACAD_REACTORS
330
2EA8
102
}
330
2EA8
100
AcDbPlotSettings
  1

  2
Kyocera Mita FS-1800
  4
A4
  6

 40
6.805083274841308
 41
5.027085304260253
 42
6.805084228515625
 43
5.027069091796875
 44
209.9733276367187
 45
296.9259948730469
 46
0.0
 47
8.96
 48
543.2162585118873
 49
-136.9929676107041
140
920.5562585118872
141
138.507032389296
142
1.0
143
1.403012661911184
 70
 11956
 72
     1
 73
     1
 74
     4
  7

 75
     0
147
0.7127519424078466
148
-543.2162585118873
149
136.9929676107041
100
AcDbLayout
  1
Model
 70
     1
 71
     0
 10
0.0
 20
0.0
 11
12.0
 21
9.0
 12
0.0
 22
0.0
 32
0.0
 14
0.0
 24
0.0
 34
0.0
 15
0.0
 25
0.0
 35
0.0
146
0.0
 13
0.0
 23
0.0
 33
0.0
 16
1.0
 26
0.0
 36
0.0
 17
0.0
 27
1.0
 37
0.0
 76
     0
330
1503
  0
MLINESTYLE
  5
1506
102
{ACAD_REACTORS
330
14F9
102
}
330
14F9
100
AcDbMlineStyle
  2
STANDARD
 70
     0
  3

 62
     0
 51
90.0
 52
90.0
 71
     2
 49
0.5
 62
   256
  6
BYLAYER
 49
-0.5
 62
   256
  6
BYLAYER
  0
ACDBPLACEHOLDER
  5
2EA7
102
{ACAD_REACTORS
330
2EA6
102
}
330
2EA6
  0
ENDSEC
  0
EOF
