  0
SECTION
  2
HEADER
  9
$ACADVER
  1
AC1009
  9
$DWGCODEPAGE
  3
ansi_1252
  9
$INSBASE
 10
0.0
 20
0.0
 30
0.0
  9
$EXTMIN
 10
0.0
 20
0.0
 30
0.0
  9
$EXTMAX
 10
2100.0
 20
1485.0
 30
0.0
  9
$LIMMIN
 10
0.0
 20
0.0
  9
$LIMMAX
 10
2100.0
 20
1485.0
  9
$ORTHOMODE
 70
     0
  9
$REGENMODE
 70
     1
  9
$FILLMODE
 70
     1
  9
$QTEXTMODE
 70
     0
  9
$MIRRTEXT
 70
     1
  9
$DRAGMODE
 70
     2
  9
$LTSCALE
 40
5.0
  9
$OSMODE
 70
    37
  9
$ATTMODE
 70
     1
  9
$TEXTSIZE
 40
17.5
  9
$TRACEWID
 40
1.0
  9
$TEXTSTYLE
  7
STANDARD
  9
$CLAYER
  8
0
  9
$CELTYPE
  6
BYLAYER
  9
$CECOLOR
 62
   256
  9
$DIMSCALE
 40
1.0
  9
$DIMASZ
 40
16.51
  9
$DIMEXO
 40
5.0
  9
$DIMDLI
 40
3.75
  9
$DIMRND
 40
0.0
  9
$DIMDLE
 40
0.0
  9
$DIMEXE
 40
5.0
  9
$DIMTP
 40
0.0
  9
$DIMTM
 40
0.0
  9
$DIMTXT
 40
17.5
  9
$DIMCEN
 40
2.5
  9
$DIMTSZ
 40
0.0
  9
$DIMTOL
 70
     0
  9
$DIMLIM
 70
     0
  9
$DIMTIH
 70
     1
  9
$DIMTOH
 70
     1
  9
$DIMSE1
 70
     0
  9
$DIMSE2
 70
     0
  9
$DIMTAD
 70
     1
  9
$DIMZIN
 70
     0
  9
$DIMBLK
  1

  9
$DIMASO
 70
     1
  9
$DIMSHO
 70
     1
  9
$DIMPOST
  1

  9
$DIMAPOST
  1

  9
$DIMALT
 70
     0
  9
$DIMALTD
 70
     3
  9
$DIMALTF
 40
0.0393700787
  9
$DIMLFAC
 40
1.0
  9
$DIMTOFL
 70
     1
  9
$DIMTVP
 40
0.0
  9
$DIMTIX
 70
     0
  9
$DIMSOXD
 70
     0
  9
$DIMSAH
 70
     0
  9
$DIMBLK1
  1

  9
$DIMBLK2
  1

  9
$DIMSTYLE
  2
ISO-25
  9
$DIMCLRD
 70
     0
  9
$DIMCLRE
 70
     0
  9
$DIMCLRT
 70
     0
  9
$DIMTFAC
 40
1.0
  9
$DIMGAP
 40
7.62
  9
$LUNITS
 70
     2
  9
$LUPREC
 70
     2
  9
$SKETCHINC
 40
1.0
  9
$FILLETRAD
 40
10.0
  9
$AUNITS
 70
     0
  9
$AUPREC
 70
     2
  9
$MENU
  1
.
  9
$ELEVATION
 40
0.0
  9
$PELEVATION
 40
0.0
  9
$THICKNESS
 40
0.0
  9
$LIMCHECK
 70
     0
  9
$CHAMFERA
 40
0.0
  9
$CHAMFERB
 40
0.0
  9
$SKPOLY
 70
     0
  9
$TDCREATE
 40
2458159.503417836
  9
$TDUPDATE
 40
2458159.503420058
  9
$TDINDWG
 40
0.0000000116
  9
$TDUSRTIMER
 40
0.0000000116
  9
$USRTIMER
 70
     1
  9
$ANGBASE
 50
0.0
  9
$ANGDIR
 70
     0
  9
$PDMODE
 70
     0
  9
$PDSIZE
 40
-1.0
  9
$PLINEWID
 40
0.0
  9
$COORDS
 70
     1
  9
$SPLFRAME
 70
     0
  9
$SPLINETYPE
 70
     6
  9
$SPLINESEGS
 70
     8
  9
$ATTDIA
 70
     0
  9
$ATTREQ
 70
     1
  9
$HANDLING
 70
     1
  9
$HANDSEED
  5
A97
  9
$SURFTAB1
 70
     6
  9
$SURFTAB2
 70
     6
  9
$SURFTYPE
 70
     6
  9
$SURFU
 70
     6
  9
$SURFV
 70
     6
  9
$UCSNAME
  2

  9
$UCSORG
 10
0.0
 20
0.0
 30
0.0
  9
$UCSXDIR
 10
1.0
 20
0.0
 30
0.0
  9
$UCSYDIR
 10
0.0
 20
1.0
 30
0.0
  9
$PUCSNAME
  2

  9
$PUCSORG
 10
0.0
 20
0.0
 30
0.0
  9
$PUCSXDIR
 10
1.0
 20
0.0
 30
0.0
  9
$PUCSYDIR
 10
0.0
 20
1.0
 30
0.0
  9
$USERI1
 70
     0
  9
$USERI2
 70
     0
  9
$USERI3
 70
     0
  9
$USERI4
 70
     0
  9
$USERI5
 70
     0
  9
$USERR1
 40
0.0
  9
$USERR2
 40
0.0
  9
$USERR3
 40
0.0
  9
$USERR4
 40
0.0
  9
$USERR5
 40
0.0
  9
$WORLDVIEW
 70
     1
  9
$SHADEDGE
 70
     3
  9
$SHADEDIF
 70
    70
  9
$TILEMODE
 70
     1
  9
$MAXACTVP
 70
    64
  9
$PLIMCHECK
 70
     0
  9
$PEXTMIN
 10
1.0000000000E+20
 20
1.0000000000E+20
 30
1.0000000000E+20
  9
$PEXTMAX
 10
-1.0000000000E+20
 20
-1.0000000000E+20
 30
-1.0000000000E+20
  9
$PLIMMIN
 10
0.0
 20
0.0
  9
$PLIMMAX
 10
420.0
 20
297.0
  9
$UNITMODE
 70
     0
  9
$VISRETAIN
 70
     1
  9
$PLINEGEN
 70
     0
  9
$PSLTSCALE
 70
     1
  0
ENDSEC
  0
SECTION
  2
TABLES
  0
TABLE
  2
VPORT
 70
     1
  0
VPORT
  2
*ACTIVE
 70
     0
 10
0.0
 20
0.0
 11
1.0
 21
1.0
 12
1050.0
 22
742.5
 13
0.0
 23
0.0
 14
10.0
 24
10.0
 15
10.0
 25
10.0
 16
0.0
 26
0.0
 36
1.0
 17
0.0
 27
0.0
 37
0.0
 40
1485.0
 41
1.4141414141
 42
50.0
 43
0.0
 44
0.0
 50
0.0
 51
0.0
 71
     0
 72
  2000
 73
     1
 74
     3
 75
     0
 76
     0
 77
     0
 78
     0
  0
ENDTAB
  0
TABLE
  2
LTYPE
 70
     8
  0
LTYPE
  2
CONTINUOUS
 70
     0
  3
Solid line
 72
    65
 73
     0
 40
0.0
  0
LTYPE
  2
SLD-DURCHGEHEND
 70
     0
  3
SolidWorks Line Style
 72
    65
 73
     0
 40
0.0
  0
LTYPE
  2
SLD-GESTRICHELT
 70
     0
  3
SolidWorks Line Style
 72
    65
 73
     2
 40
1.905
 49
1.27
 49
-0.635
  0
LTYPE
  2
SLD-PHANTOM
 70
     0
  3
SolidWorks Line Style
 72
    65
 73
     6
 40
12.7
 49
6.35
 49
-1.27
 49
1.27
 49
-1.27
 49
1.27
 49
-1.27
  0
LTYPE
  2
SLD-KETTE
 70
     0
  3
SolidWorks Line Style
 72
    65
 73
     4
 40
10.16
 49
6.35
 49
-1.27
 49
1.27
 49
-1.27
  0
LTYPE
  2
SLD-PUNKTSTRICH
 70
     0
  3
SolidWorks Line Style
 72
    65
 73
     4
 40
19.05
 49
15.24
 49
-1.27
 49
1.27
 49
-1.27
  0
LTYPE
  2
SLD-NAHT
 70
     0
  3
SolidWorks Line Style
 72
    65
 73
     2
 40
0.635
 49
0.0
 49
-0.635
  0
LTYPE
  2
SLD-DICKE-DÜNNE-KETTE
 70
     0
  3
SolidWorks Line Style
 72
    65
 73
     4
 40
10.16
 49
6.35
 49
-1.27
 49
1.27
 49
-1.27
  0
ENDTAB
  0
TABLE
  2
LAYER
 70
    10
  0
LAYER
  2
0
 70
     0
 62
     7
  6
CONTINUOUS
  0
LAYER
  2
DEFPOINTS
 70
     0
 62
     7
  6
CONTINUOUS
  0
LAYER
  2
BGTBAS-3
 70
     0
 62
    52
  6
SLD-GESTRICHELT
  0
LAYER
  2
BGTBAS-0
 70
     0
 62
     6
  6
CONTINUOUS
  0
LAYER
  2
BGTBAS-8
 70
     0
 62
     8
  6
SLD-DURCHGEHEND
  0
LAYER
  2
BGTBAS-2A
 70
     0
 62
    30
  6
SLD-GESTRICHELT
  0
LAYER
  2
BGTBAS-7
 70
     0
 62
    52
  6
SLD-PUNKTSTRICH
  0
LAYER
  2
BGTBAS-5
 70
     0
 62
     7
  6
SLD-DURCHGEHEND
  0
LAYER
  2
BGTBAS-4
 70
     0
 62
   252
  6
SLD-DURCHGEHEND
  0
LAYER
  2
BGTBAS-6
 70
     0
 62
     7
  6
SLD-DURCHGEHEND
  0
ENDTAB
  0
TABLE
  2
STYLE
 70
     1
  0
STYLE
  2
STANDARD
 70
     0
 40
0.0
 41
1.0
 50
0.0
 71
     0
 42
17.5
  3
txt
  4

  0
ENDTAB
  0
TABLE
  2
VIEW
 70
     0
  0
ENDTAB
  0
TABLE
  2
UCS
 70
     0
  0
ENDTAB
  0
TABLE
  2
APPID
 70
     1
  0
APPID
  2
ACAD
 70
     0
  0
ENDTAB
  0
TABLE
  2
DIMSTYLE
 70
     1
  0
DIMSTYLE
  2
ISO-25
 70
     0
  3

  4

  5

  6

  7

 40
1.0
 41
2.5
 42
0.625
 43
3.75
 44
1.25
 45
0.0
 46
0.0
 47
0.0
 48
0.0
140
2.5
141
2.5
142
0.0
143
0.0393700787
144
1.0
145
0.0
146
1.0
147
0.625
 71
     0
 72
     0
 73
     0
 74
     0
 75
     0
 76
     0
 77
     1
 78
     8
170
     0
171
     3
172
     1
173
     0
174
     0
175
     0
176
     0
177
     0
178
     0
  0
ENDTAB
  0
ENDSEC
  0
SECTION
  2
BLOCKS
  0
BLOCK
  8
0
  2
$MODEL_SPACE
 70
     0
 10
0.0
 20
0.0
 30
0.0
  3
$MODEL_SPACE
  1

  0
ENDBLK
  5
21
  8
0
  0
BLOCK
 67
     1
  8
0
  2
$PAPER_SPACE
 70
     0
 10
0.0
 20
0.0
 30
0.0
  3
$PAPER_SPACE
  1

  0
ENDBLK
  5
1D
 67
     1
  8
0
  0
ENDSEC
  0
SECTION
  2
ENTITIES
  0
POLYLINE
  5
7E
  8
BGTBAS-0
 66
     1
 10
0.0
 20
0.0
 30
0.0
 70
   128
  0
VERTEX
  5
2A3
  8
BGTBAS-0
 10
326.1719039411
 20
757.1077823711
 30
0.0
  0
VERTEX
  5
2A4
  8
BGTBAS-0
 10
328.5693892435
 20
754.7217946201
 30
0.0
  0
VERTEX
  5
2A5
  8
BGTBAS-0
 10
330.9668711789
 20
752.33528043
 30
0.0
  0
SEQEND
  5
9A2
  8
BGTBAS-0
  0
POLYLINE
  5
7F
  8
BGTBAS-0
 66
     1
 10
0.0
 20
0.0
 30
0.0
 70
   128
  0
VERTEX
  5
2A6
  8
BGTBAS-0
 10
926.1719041346
 20
757.107782179
 30
0.0
  0
VERTEX
  5
2A7
  8
BGTBAS-0
 10
928.5693894344
 20
754.7217944305
 30
0.0
  0
VERTEX
  5
2A8
  8
BGTBAS-0
 10
930.9668713672
 20
752.3352802431
 30
0.0
  0
SEQEND
  5
9A3
  8
BGTBAS-0
  0
POLYLINE
  5
80
  8
BGTBAS-0
 66
     1
 10
0.0
 20
0.0
 30
0.0
 70
   128
  0
VERTEX
  5
2A9
  8
BGTBAS-0
 10
746.1719039552
 20
757.1077823571
 30
0.0
  0
VERTEX
  5
2AA
  8
BGTBAS-0
 10
748.5693892574
 20
754.7217946063
 30
0.0
  0
VERTEX
  5
2AB
  8
BGTBAS-0
 10
750.9668711926
 20
752.3352804164
 30
0.0
  0
SEQEND
  5
9A4
  8
BGTBAS-0
  0
POLYLINE
  5
81
  8
BGTBAS-0
 66
     1
 10
0.0
 20
0.0
 30
0.0
 70
   128
  0
VERTEX
  5
2AC
  8
BGTBAS-0
 10
566.1719041646
 20
757.1077821493
 30
0.0
  0
VERTEX
  5
2AD
  8
BGTBAS-0
 10
568.569389464
 20
754.7217944012
 30
0.0
  0
VERTEX
  5
2AE
  8
BGTBAS-0
 10
570.9668713964
 20
752.3352802142
 30
0.0
  0
SEQEND
  5
9A5
  8
BGTBAS-0
  0
POLYLINE
  5
82
  8
BGTBAS-0
 66
     1
 10
0.0
 20
0.0
 30
0.0
 70
   128
  0
VERTEX
  5
2AF
  8
BGTBAS-0
 10
686.1719040486
 20
757.1077822643
 30
0.0
  0
VERTEX
  5
2B0
  8
BGTBAS-0
 10
688.5693893496
 20
754.7217945148
 30
0.0
  0
VERTEX
  5
2B1
  8
BGTBAS-0
 10
690.9668712836
 20
752.3352803261
 30
0.0
  0
SEQEND
  5
9A6
  8
BGTBAS-0
  0
POLYLINE
  5
83
  8
BGTBAS-0
 66
     1
 10
0.0
 20
0.0
 30
0.0
 70
   128
  0
VERTEX
  5
2B2
  8
BGTBAS-0
 10
480.9668711691
 20
955.9275134373
 30
0.0
  0
VERTEX
  5
2B3
  8
BGTBAS-0
 10
478.5693892336
 20
953.540999247
 30
0.0
  0
VERTEX
  5
2B4
  8
BGTBAS-0
 10
476.6505849705
 20
951.6313969385
 30
0.0
  0
SEQEND
  5
9A7
  8
BGTBAS-0
  0
POLYLINE
  5
84
  8
BGTBAS-0
 66
     1
 10
0.0
 20
0.0
 30
0.0
 70
   128
  0
VERTEX
  5
2B5
  8
BGTBAS-0
 10
720.9668713547
 20
955.9275136215
 30
0.0
  0
VERTEX
  5
2B6
  8
BGTBAS-0
 10
718.5693894217
 20
953.5409994338
 30
0.0
  0
VERTEX
  5
2B7
  8
BGTBAS-0
 10
716.650584971
 20
951.6313969385
 30
0.0
  0
SEQEND
  5
9A8
  8
BGTBAS-0
  0
POLYLINE
  5
85
  8
BGTBAS-0
 66
     1
 10
0.0
 20
0.0
 30
0.0
 70
   128
  0
VERTEX
  5
2B8
  8
BGTBAS-0
 10
446.1719038952
 20
757.1077824166
 30
0.0
  0
VERTEX
  5
2B9
  8
BGTBAS-0
 10
448.5693891983
 20
754.721794665
 30
0.0
  0
VERTEX
  5
2BA
  8
BGTBAS-0
 10
450.9668711343
 20
752.3352804742
 30
0.0
  0
SEQEND
  5
9A9
  8
BGTBAS-0
  0
POLYLINE
  5
86
  8
BGTBAS-0
 66
     1
 10
0.0
 20
0.0
 30
0.0
 70
   128
  0
VERTEX
  5
2BB
  8
BGTBAS-0
 10
806.1719038952
 20
757.1077824166
 30
0.0
  0
VERTEX
  5
2BC
  8
BGTBAS-0
 10
808.5693891982
 20
754.721794665
 30
0.0
  0
VERTEX
  5
2BD
  8
BGTBAS-0
 10
810.9668711343
 20
752.3352804743
 30
0.0
  0
SEQEND
  5
9AA
  8
BGTBAS-0
  0
POLYLINE
  5
87
  8
BGTBAS-0
 66
     1
 10
0.0
 20
0.0
 30
0.0
 70
   128
  0
VERTEX
  5
2BE
  8
BGTBAS-0
 10
266.171903895
 20
757.1077824168
 30
0.0
  0
VERTEX
  5
2BF
  8
BGTBAS-0
 10
268.569389198
 20
754.7217946653
 30
0.0
  0
VERTEX
  5
2C0
  8
BGTBAS-0
 10
270.966871134
 20
752.3352804745
 30
0.0
  0
SEQEND
  5
9AB
  8
BGTBAS-0
  0
POLYLINE
  5
88
  8
BGTBAS-0
 66
     1
 10
0.0
 20
0.0
 30
0.0
 70
   128
  0
VERTEX
  5
2C1
  8
BGTBAS-0
 10
1020.9668711339
 20
955.9275134023
 30
0.0
  0
VERTEX
  5
2C2
  8
BGTBAS-0
 10
1018.5693891978
 20
953.5409992115
 30
0.0
  0
VERTEX
  5
2C3
  8
BGTBAS-0
 10
1016.6505849704
 20
951.6313969385
 30
0.0
  0
SEQEND
  5
9AC
  8
BGTBAS-0
  0
POLYLINE
  5
89
  8
BGTBAS-0
 66
     1
 10
0.0
 20
0.0
 30
0.0
 70
   128
  0
VERTEX
  5
2C4
  8
BGTBAS-0
 10
506.1719038951
 20
757.1077824167
 30
0.0
  0
VERTEX
  5
2C5
  8
BGTBAS-0
 10
508.5693891982
 20
754.7217946651
 30
0.0
  0
VERTEX
  5
2C6
  8
BGTBAS-0
 10
510.9668711342
 20
752.3352804743
 30
0.0
  0
SEQEND
  5
9AD
  8
BGTBAS-0
  0
POLYLINE
  5
8A
  8
BGTBAS-0
 66
     1
 10
0.0
 20
0.0
 30
0.0
 70
   128
  0
VERTEX
  5
2C7
  8
BGTBAS-0
 10
1166.1719039296
 20
757.1077823825
 30
0.0
  0
VERTEX
  5
2C8
  8
BGTBAS-0
 10
1168.5693892322
 20
754.7217946313
 30
0.0
  0
VERTEX
  5
2C9
  8
BGTBAS-0
 10
1170.9668711677
 20
752.335280441
 30
0.0
  0
SEQEND
  5
9AE
  8
BGTBAS-0
  0
POLYLINE
  5
8B
  8
BGTBAS-0
 66
     1
 10
0.0
 20
0.0
 30
0.0
 70
   128
  0
VERTEX
  5
2CA
  8
BGTBAS-0
 10
1346.1719039128
 20
757.1077823991
 30
0.0
  0
VERTEX
  5
2CB
  8
BGTBAS-0
 10
1348.5693892156
 20
754.7217946478
 30
0.0
  0
VERTEX
  5
2CC
  8
BGTBAS-0
 10
1350.9668711514
 20
752.3352804572
 30
0.0
  0
SEQEND
  5
9AF
  8
BGTBAS-0
  0
POLYLINE
  5
8C
  8
BGTBAS-0
 66
     1
 10
0.0
 20
0.0
 30
0.0
 70
   128
  0
VERTEX
  5
2CD
  8
BGTBAS-0
 10
1286.1719038948
 20
757.107782417
 30
0.0
  0
VERTEX
  5
2CE
  8
BGTBAS-0
 10
1288.5693891978
 20
754.7217946655
 30
0.0
  0
VERTEX
  5
2CF
  8
BGTBAS-0
 10
1290.9668711339
 20
752.3352804747
 30
0.0
  0
SEQEND
  5
9B0
  8
BGTBAS-0
  0
POLYLINE
  5
8D
  8
BGTBAS-0
 66
     1
 10
0.0
 20
0.0
 30
0.0
 70
   128
  0
VERTEX
  5
2D0
  8
BGTBAS-0
 10
1226.171903895
 20
757.1077824168
 30
0.0
  0
VERTEX
  5
2D1
  8
BGTBAS-0
 10
1228.569389198
 20
754.7217946652
 30
0.0
  0
VERTEX
  5
2D2
  8
BGTBAS-0
 10
1230.9668711341
 20
752.3352804745
 30
0.0
  0
SEQEND
  5
9B1
  8
BGTBAS-0
  0
POLYLINE
  5
8E
  8
BGTBAS-0
 66
     1
 10
0.0
 20
0.0
 30
0.0
 70
   128
  0
VERTEX
  5
2D3
  8
BGTBAS-0
 10
960.9668713028
 20
955.92751357
 30
0.0
  0
VERTEX
  5
2D4
  8
BGTBAS-0
 10
958.5693893691
 20
953.5409993816
 30
0.0
  0
VERTEX
  5
2D5
  8
BGTBAS-0
 10
956.6505849709
 20
951.6313969385
 30
0.0
  0
SEQEND
  5
9B2
  8
BGTBAS-0
  0
POLYLINE
  5
8F
  8
BGTBAS-0
 66
     1
 10
0.0
 20
0.0
 30
0.0
 70
   128
  0
VERTEX
  5
2D6
  8
BGTBAS-0
 10
420.9668712985
 20
955.9275135657
 30
0.0
  0
VERTEX
  5
2D7
  8
BGTBAS-0
 10
418.5693893647
 20
953.5409993773
 30
0.0
  0
VERTEX
  5
2D8
  8
BGTBAS-0
 10
416.6505849709
 20
951.6313969385
 30
0.0
  0
SEQEND
  5
9B3
  8
BGTBAS-0
  0
POLYLINE
  5
90
  8
BGTBAS-0
 66
     1
 10
0.0
 20
0.0
 30
0.0
 70
   128
  0
VERTEX
  5
2D9
  8
BGTBAS-0
 10
986.1719038948
 20
757.107782417
 30
0.0
  0
VERTEX
  5
2DA
  8
BGTBAS-0
 10
988.5693891978
 20
754.7217946655
 30
0.0
  0
VERTEX
  5
2DB
  8
BGTBAS-0
 10
990.9668711339
 20
752.3352804747
 30
0.0
  0
SEQEND
  5
9B4
  8
BGTBAS-0
  0
POLYLINE
  5
91
  8
BGTBAS-0
 66
     1
 10
0.0
 20
0.0
 30
0.0
 70
   128
  0
VERTEX
  5
2DC
  8
BGTBAS-0
 10
386.1719038948
 20
757.107782417
 30
0.0
  0
VERTEX
  5
2DD
  8
BGTBAS-0
 10
388.5693891978
 20
754.7217946655
 30
0.0
  0
VERTEX
  5
2DE
  8
BGTBAS-0
 10
390.9668711339
 20
752.3352804747
 30
0.0
  0
SEQEND
  5
9B5
  8
BGTBAS-0
  0
POLYLINE
  5
92
  8
BGTBAS-0
 66
     1
 10
0.0
 20
0.0
 30
0.0
 70
   128
  0
VERTEX
  5
2DF
  8
BGTBAS-0
 10
626.1719038948
 20
757.107782417
 30
0.0
  0
VERTEX
  5
2E0
  8
BGTBAS-0
 10
628.5693891978
 20
754.7217946655
 30
0.0
  0
VERTEX
  5
2E1
  8
BGTBAS-0
 10
630.9668711339
 20
752.3352804747
 30
0.0
  0
SEQEND
  5
9B6
  8
BGTBAS-0
  0
POLYLINE
  5
93
  8
BGTBAS-0
 66
     1
 10
0.0
 20
0.0
 30
0.0
 70
   128
  0
VERTEX
  5
2E2
  8
BGTBAS-0
 10
1406.1719038949
 20
757.1077824169
 30
0.0
  0
VERTEX
  5
2E3
  8
BGTBAS-0
 10
1408.5693891979
 20
754.7217946654
 30
0.0
  0
VERTEX
  5
2E4
  8
BGTBAS-0
 10
1410.966871134
 20
752.3352804746
 30
0.0
  0
SEQEND
  5
9B7
  8
BGTBAS-0
  0
POLYLINE
  5
94
  8
BGTBAS-0
 66
     1
 10
0.0
 20
0.0
 30
0.0
 70
   128
  0
VERTEX
  5
2E5
  8
BGTBAS-0
 10
1106.1719038948
 20
757.107782417
 30
0.0
  0
VERTEX
  5
2E6
  8
BGTBAS-0
 10
1108.5693891978
 20
754.7217946655
 30
0.0
  0
VERTEX
  5
2E7
  8
BGTBAS-0
 10
1110.9668711339
 20
752.3352804747
 30
0.0
  0
SEQEND
  5
9B8
  8
BGTBAS-0
  0
POLYLINE
  5
95
  8
BGTBAS-0
 66
     1
 10
0.0
 20
0.0
 30
0.0
 70
   128
  0
VERTEX
  5
2E8
  8
BGTBAS-0
 10
866.1719038948
 20
757.107782417
 30
0.0
  0
VERTEX
  5
2E9
  8
BGTBAS-0
 10
868.5693891978
 20
754.7217946655
 30
0.0
  0
VERTEX
  5
2EA
  8
BGTBAS-0
 10
870.9668711339
 20
752.3352804747
 30
0.0
  0
SEQEND
  5
9B9
  8
BGTBAS-0
  0
POLYLINE
  5
96
  8
BGTBAS-0
 66
     1
 10
0.0
 20
0.0
 30
0.0
 70
   128
  0
VERTEX
  5
2EB
  8
BGTBAS-0
 10
1046.1719038948
 20
757.107782417
 30
0.0
  0
VERTEX
  5
2EC
  8
BGTBAS-0
 10
1048.5693891978
 20
754.7217946655
 30
0.0
  0
VERTEX
  5
2ED
  8
BGTBAS-0
 10
1050.9668711339
 20
752.3352804747
 30
0.0
  0
SEQEND
  5
9BA
  8
BGTBAS-0
  0
POLYLINE
  5
97
  8
BGTBAS-0
 66
     1
 10
0.0
 20
0.0
 30
0.0
 70
   128
  0
VERTEX
  5
2EE
  8
BGTBAS-0
 10
1140.9668711453
 20
955.9275134136
 30
0.0
  0
VERTEX
  5
2EF
  8
BGTBAS-0
 10
1138.5693892094
 20
953.540999223
 30
0.0
  0
VERTEX
  5
2F0
  8
BGTBAS-0
 10
1136.6505849704
 20
951.6313969385
 30
0.0
  0
SEQEND
  5
9BB
  8
BGTBAS-0
  0
POLYLINE
  5
98
  8
BGTBAS-0
 66
     1
 10
0.0
 20
0.0
 30
0.0
 70
   128
  0
VERTEX
  5
2F1
  8
BGTBAS-0
 10
240.9668712367
 20
955.9275135044
 30
0.0
  0
VERTEX
  5
2F2
  8
BGTBAS-0
 10
238.5693893021
 20
953.5409993151
 30
0.0
  0
VERTEX
  5
2F3
  8
BGTBAS-0
 10
236.6505849707
 20
951.6313969385
 30
0.0
  0
SEQEND
  5
9BC
  8
BGTBAS-0
  0
POLYLINE
  5
99
  8
BGTBAS-0
 66
     1
 10
0.0
 20
0.0
 30
0.0
 70
   128
  0
VERTEX
  5
2F4
  8
BGTBAS-0
 10
900.9668711343
 20
955.9275134028
 30
0.0
  0
VERTEX
  5
2F5
  8
BGTBAS-0
 10
898.5693891983
 20
953.540999212
 30
0.0
  0
VERTEX
  5
2F6
  8
BGTBAS-0
 10
896.6505849704
 20
951.6313969385
 30
0.0
  0
SEQEND
  5
9BD
  8
BGTBAS-0
  0
POLYLINE
  5
9A
  8
BGTBAS-0
 66
     1
 10
0.0
 20
0.0
 30
0.0
 70
   128
  0
VERTEX
  5
2F7
  8
BGTBAS-0
 10
360.9668711343
 20
955.9275134027
 30
0.0
  0
VERTEX
  5
2F8
  8
BGTBAS-0
 10
358.5693891983
 20
953.540999212
 30
0.0
  0
VERTEX
  5
2F9
  8
BGTBAS-0
 10
356.6505849704
 20
951.6313969385
 30
0.0
  0
SEQEND
  5
9BE
  8
BGTBAS-0
  0
POLYLINE
  5
9B
  8
BGTBAS-0
 66
     1
 10
0.0
 20
0.0
 30
0.0
 70
   128
  0
VERTEX
  5
2FA
  8
BGTBAS-0
 10
600.9668711343
 20
955.9275134027
 30
0.0
  0
VERTEX
  5
2FB
  8
BGTBAS-0
 10
598.5693891983
 20
953.540999212
 30
0.0
  0
VERTEX
  5
2FC
  8
BGTBAS-0
 10
596.6505849704
 20
951.6313969385
 30
0.0
  0
SEQEND
  5
9BF
  8
BGTBAS-0
  0
POLYLINE
  5
9C
  8
BGTBAS-0
 66
     1
 10
0.0
 20
0.0
 30
0.0
 70
   128
  0
VERTEX
  5
2FD
  8
BGTBAS-0
 10
1200.9668711339
 20
955.9275134023
 30
0.0
  0
VERTEX
  5
2FE
  8
BGTBAS-0
 10
1198.5693891978
 20
953.5409992115
 30
0.0
  0
VERTEX
  5
2FF
  8
BGTBAS-0
 10
1196.6505849704
 20
951.6313969385
 30
0.0
  0
SEQEND
  5
9C0
  8
BGTBAS-0
  0
POLYLINE
  5
9D
  8
BGTBAS-0
 66
     1
 10
0.0
 20
0.0
 30
0.0
 70
   128
  0
VERTEX
  5
300
  8
BGTBAS-0
 10
1440.9668711719
 20
955.9275134401
 30
0.0
  0
VERTEX
  5
301
  8
BGTBAS-0
 10
1438.5693892364
 20
953.5409992498
 30
0.0
  0
VERTEX
  5
302
  8
BGTBAS-0
 10
1436.6505849705
 20
951.6313969385
 30
0.0
  0
SEQEND
  5
9C1
  8
BGTBAS-0
  0
POLYLINE
  5
9E
  8
BGTBAS-0
 66
     1
 10
0.0
 20
0.0
 30
0.0
 70
   128
  0
VERTEX
  5
303
  8
BGTBAS-0
 10
1260.966871158
 20
955.9275134262
 30
0.0
  0
VERTEX
  5
304
  8
BGTBAS-0
 10
1258.5693892223
 20
953.5409992358
 30
0.0
  0
VERTEX
  5
305
  8
BGTBAS-0
 10
1256.6505849705
 20
951.6313969385
 30
0.0
  0
SEQEND
  5
9C2
  8
BGTBAS-0
  0
POLYLINE
  5
9F
  8
BGTBAS-0
 66
     1
 10
0.0
 20
0.0
 30
0.0
 70
   128
  0
VERTEX
  5
306
  8
BGTBAS-0
 10
1380.9668711339
 20
955.9275134023
 30
0.0
  0
VERTEX
  5
307
  8
BGTBAS-0
 10
1378.5693891978
 20
953.5409992115
 30
0.0
  0
VERTEX
  5
308
  8
BGTBAS-0
 10
1376.6505849704
 20
951.6313969385
 30
0.0
  0
SEQEND
  5
9C3
  8
BGTBAS-0
  0
POLYLINE
  5
A0
  8
BGTBAS-0
 66
     1
 10
0.0
 20
0.0
 30
0.0
 70
   128
  0
VERTEX
  5
309
  8
BGTBAS-0
 10
840.9668711584
 20
955.9275134267
 30
0.0
  0
VERTEX
  5
30A
  8
BGTBAS-0
 10
838.5693892227
 20
953.5409992362
 30
0.0
  0
VERTEX
  5
30B
  8
BGTBAS-0
 10
836.6505849705
 20
951.6313969385
 30
0.0
  0
SEQEND
  5
9C4
  8
BGTBAS-0
  0
POLYLINE
  5
A1
  8
BGTBAS-0
 66
     1
 10
0.0
 20
0.0
 30
0.0
 70
   128
  0
VERTEX
  5
30C
  8
BGTBAS-0
 10
1080.9668711529
 20
955.9275134212
 30
0.0
  0
VERTEX
  5
30D
  8
BGTBAS-0
 10
1078.5693892172
 20
953.5409992307
 30
0.0
  0
VERTEX
  5
30E
  8
BGTBAS-0
 10
1076.6505849705
 20
951.6313969385
 30
0.0
  0
SEQEND
  5
9C5
  8
BGTBAS-0
  0
POLYLINE
  5
A2
  8
BGTBAS-0
 66
     1
 10
0.0
 20
0.0
 30
0.0
 70
   128
  0
VERTEX
  5
30F
  8
BGTBAS-0
 10
1320.966871134
 20
955.9275134025
 30
0.0
  0
VERTEX
  5
310
  8
BGTBAS-0
 10
1318.569389198
 20
953.5409992117
 30
0.0
  0
VERTEX
  5
311
  8
BGTBAS-0
 10
1316.6505849704
 20
951.6313969385
 30
0.0
  0
SEQEND
  5
9C6
  8
BGTBAS-0
  0
POLYLINE
  5
A3
  8
BGTBAS-0
 66
     1
 10
0.0
 20
0.0
 30
0.0
 70
   128
  0
VERTEX
  5
312
  8
BGTBAS-0
 10
780.9668711339
 20
955.9275134023
 30
0.0
  0
VERTEX
  5
313
  8
BGTBAS-0
 10
778.5693891978
 20
953.5409992115
 30
0.0
  0
VERTEX
  5
314
  8
BGTBAS-0
 10
776.6505849704
 20
951.6313969385
 30
0.0
  0
SEQEND
  5
9C7
  8
BGTBAS-0
  0
POLYLINE
  5
A4
  8
BGTBAS-0
 66
     1
 10
0.0
 20
0.0
 30
0.0
 70
   128
  0
VERTEX
  5
315
  8
BGTBAS-0
 10
540.9668711339
 20
955.9275134023
 30
0.0
  0
VERTEX
  5
316
  8
BGTBAS-0
 10
538.5693891978
 20
953.5409992115
 30
0.0
  0
VERTEX
  5
317
  8
BGTBAS-0
 10
536.6505849704
 20
951.6313969385
 30
0.0
  0
SEQEND
  5
9C8
  8
BGTBAS-0
  0
POLYLINE
  5
A5
  8
BGTBAS-0
 66
     1
 10
0.0
 20
0.0
 30
0.0
 70
   128
  0
VERTEX
  5
318
  8
BGTBAS-0
 10
660.9668711339
 20
955.9275134023
 30
0.0
  0
VERTEX
  5
319
  8
BGTBAS-0
 10
658.5693891978
 20
953.5409992115
 30
0.0
  0
VERTEX
  5
31A
  8
BGTBAS-0
 10
656.6505849704
 20
951.6313969385
 30
0.0
  0
SEQEND
  5
9C9
  8
BGTBAS-0
  0
POLYLINE
  5
A6
  8
BGTBAS-0
 66
     1
 10
0.0
 20
0.0
 30
0.0
 70
   128
  0
VERTEX
  5
31B
  8
BGTBAS-0
 10
300.9668711339
 20
955.9275134023
 30
0.0
  0
VERTEX
  5
31C
  8
BGTBAS-0
 10
298.5693891978
 20
953.5409992115
 30
0.0
  0
VERTEX
  5
31D
  8
BGTBAS-0
 10
296.6505849704
 20
951.6313969385
 30
0.0
  0
SEQEND
  5
9CA
  8
BGTBAS-0
  0
POLYLINE
  5
A7
  8
BGTBAS-0
 66
     1
 10
0.0
 20
0.0
 30
0.0
 70
   128
  0
VERTEX
  5
31E
  8
BGTBAS-0
 10
1302.2613072989
 20
752.3199109514
 30
0.0
  0
VERTEX
  5
31F
  8
BGTBAS-0
 10
1304.6574694489
 20
754.7056775759
 30
0.0
  0
VERTEX
  5
320
  8
BGTBAS-0
 10
1306.591983553
 20
756.6313969385
 30
0.0
  0
SEQEND
  5
9CB
  8
BGTBAS-0
  0
POLYLINE
  5
A8
  8
BGTBAS-0
 66
     1
 10
0.0
 20
0.0
 30
0.0
 70
   128
  0
VERTEX
  5
321
  8
BGTBAS-0
 10
1062.2613072989
 20
752.3199109514
 30
0.0
  0
VERTEX
  5
322
  8
BGTBAS-0
 10
1064.6574694489
 20
754.7056775759
 30
0.0
  0
VERTEX
  5
323
  8
BGTBAS-0
 10
1066.591983553
 20
756.6313969385
 30
0.0
  0
SEQEND
  5
9CC
  8
BGTBAS-0
  0
POLYLINE
  5
A9
  8
BGTBAS-0
 66
     1
 10
0.0
 20
0.0
 30
0.0
 70
   128
  0
VERTEX
  5
324
  8
BGTBAS-0
 10
402.2613072989
 20
752.3199109514
 30
0.0
  0
VERTEX
  5
325
  8
BGTBAS-0
 10
404.6574694489
 20
754.7056775759
 30
0.0
  0
VERTEX
  5
326
  8
BGTBAS-0
 10
406.591983553
 20
756.6313969385
 30
0.0
  0
SEQEND
  5
9CD
  8
BGTBAS-0
  0
POLYLINE
  5
AA
  8
BGTBAS-0
 66
     1
 10
0.0
 20
0.0
 30
0.0
 70
   128
  0
VERTEX
  5
327
  8
BGTBAS-0
 10
522.2613072989
 20
752.3199109514
 30
0.0
  0
VERTEX
  5
328
  8
BGTBAS-0
 10
524.6574694489
 20
754.7056775759
 30
0.0
  0
VERTEX
  5
329
  8
BGTBAS-0
 10
526.591983553
 20
756.6313969385
 30
0.0
  0
SEQEND
  5
9CE
  8
BGTBAS-0
  0
POLYLINE
  5
AB
  8
BGTBAS-0
 66
     1
 10
0.0
 20
0.0
 30
0.0
 70
   128
  0
VERTEX
  5
32A
  8
BGTBAS-0
 10
342.2613072989
 20
752.3199109514
 30
0.0
  0
VERTEX
  5
32B
  8
BGTBAS-0
 10
344.6574694489
 20
754.7056775759
 30
0.0
  0
VERTEX
  5
32C
  8
BGTBAS-0
 10
346.591983553
 20
756.6313969385
 30
0.0
  0
SEQEND
  5
9CF
  8
BGTBAS-0
  0
POLYLINE
  5
AC
  8
BGTBAS-0
 66
     1
 10
0.0
 20
0.0
 30
0.0
 70
   128
  0
VERTEX
  5
32D
  8
BGTBAS-0
 10
282.2613072989
 20
752.3199109514
 30
0.0
  0
VERTEX
  5
32E
  8
BGTBAS-0
 10
284.6574694489
 20
754.7056775759
 30
0.0
  0
VERTEX
  5
32F
  8
BGTBAS-0
 10
286.591983553
 20
756.6313969385
 30
0.0
  0
SEQEND
  5
9D0
  8
BGTBAS-0
  0
POLYLINE
  5
AD
  8
BGTBAS-0
 66
     1
 10
0.0
 20
0.0
 30
0.0
 70
   128
  0
VERTEX
  5
330
  8
BGTBAS-0
 10
462.2613072989
 20
752.3199109514
 30
0.0
  0
VERTEX
  5
331
  8
BGTBAS-0
 10
464.6574694489
 20
754.7056775759
 30
0.0
  0
VERTEX
  5
332
  8
BGTBAS-0
 10
466.591983553
 20
756.6313969385
 30
0.0
  0
SEQEND
  5
9D1
  8
BGTBAS-0
  0
POLYLINE
  5
AE
  8
BGTBAS-0
 66
     1
 10
0.0
 20
0.0
 30
0.0
 70
   128
  0
VERTEX
  5
333
  8
BGTBAS-0
 10
1422.2613072989
 20
752.3199109514
 30
0.0
  0
VERTEX
  5
334
  8
BGTBAS-0
 10
1424.6574694489
 20
754.7056775759
 30
0.0
  0
VERTEX
  5
335
  8
BGTBAS-0
 10
1426.591983553
 20
756.6313969385
 30
0.0
  0
SEQEND
  5
9D2
  8
BGTBAS-0
  0
POLYLINE
  5
AF
  8
BGTBAS-0
 66
     1
 10
0.0
 20
0.0
 30
0.0
 70
   128
  0
VERTEX
  5
336
  8
BGTBAS-0
 10
582.2613072989
 20
752.3199109514
 30
0.0
  0
VERTEX
  5
337
  8
BGTBAS-0
 10
584.6574694489
 20
754.7056775759
 30
0.0
  0
VERTEX
  5
338
  8
BGTBAS-0
 10
586.591983553
 20
756.6313969385
 30
0.0
  0
SEQEND
  5
9D3
  8
BGTBAS-0
  0
POLYLINE
  5
B0
  8
BGTBAS-0
 66
     1
 10
0.0
 20
0.0
 30
0.0
 70
   128
  0
VERTEX
  5
339
  8
BGTBAS-0
 10
882.2613072989
 20
752.3199109514
 30
0.0
  0
VERTEX
  5
33A
  8
BGTBAS-0
 10
884.6574694489
 20
754.7056775759
 30
0.0
  0
VERTEX
  5
33B
  8
BGTBAS-0
 10
886.591983553
 20
756.6313969385
 30
0.0
  0
SEQEND
  5
9D4
  8
BGTBAS-0
  0
POLYLINE
  5
B1
  8
BGTBAS-0
 66
     1
 10
0.0
 20
0.0
 30
0.0
 70
   128
  0
VERTEX
  5
33C
  8
BGTBAS-0
 10
822.2613072989
 20
752.3199109514
 30
0.0
  0
VERTEX
  5
33D
  8
BGTBAS-0
 10
824.6574694489
 20
754.7056775759
 30
0.0
  0
VERTEX
  5
33E
  8
BGTBAS-0
 10
826.591983553
 20
756.6313969385
 30
0.0
  0
SEQEND
  5
9D5
  8
BGTBAS-0
  0
POLYLINE
  5
B2
  8
BGTBAS-0
 66
     1
 10
0.0
 20
0.0
 30
0.0
 70
   128
  0
VERTEX
  5
33F
  8
BGTBAS-0
 10
1362.2613072989
 20
752.3199109514
 30
0.0
  0
VERTEX
  5
340
  8
BGTBAS-0
 10
1364.6574694489
 20
754.7056775759
 30
0.0
  0
VERTEX
  5
341
  8
BGTBAS-0
 10
1366.591983553
 20
756.6313969385
 30
0.0
  0
SEQEND
  5
9D6
  8
BGTBAS-0
  0
POLYLINE
  5
B3
  8
BGTBAS-0
 66
     1
 10
0.0
 20
0.0
 30
0.0
 70
   128
  0
VERTEX
  5
342
  8
BGTBAS-0
 10
942.2613072989
 20
752.3199109514
 30
0.0
  0
VERTEX
  5
343
  8
BGTBAS-0
 10
944.6574694489
 20
754.7056775759
 30
0.0
  0
VERTEX
  5
344
  8
BGTBAS-0
 10
946.591983553
 20
756.6313969385
 30
0.0
  0
SEQEND
  5
9D7
  8
BGTBAS-0
  0
POLYLINE
  5
B4
  8
BGTBAS-0
 66
     1
 10
0.0
 20
0.0
 30
0.0
 70
   128
  0
VERTEX
  5
345
  8
BGTBAS-0
 10
642.2613072989
 20
752.3199109514
 30
0.0
  0
VERTEX
  5
346
  8
BGTBAS-0
 10
644.6574694489
 20
754.7056775759
 30
0.0
  0
VERTEX
  5
347
  8
BGTBAS-0
 10
646.591983553
 20
756.6313969385
 30
0.0
  0
SEQEND
  5
9D8
  8
BGTBAS-0
  0
POLYLINE
  5
B5
  8
BGTBAS-0
 66
     1
 10
0.0
 20
0.0
 30
0.0
 70
   128
  0
VERTEX
  5
348
  8
BGTBAS-0
 10
1182.2613072989
 20
752.3199109514
 30
0.0
  0
VERTEX
  5
349
  8
BGTBAS-0
 10
1184.6574694489
 20
754.7056775759
 30
0.0
  0
VERTEX
  5
34A
  8
BGTBAS-0
 10
1186.591983553
 20
756.6313969385
 30
0.0
  0
SEQEND
  5
9D9
  8
BGTBAS-0
  0
POLYLINE
  5
B6
  8
BGTBAS-0
 66
     1
 10
0.0
 20
0.0
 30
0.0
 70
   128
  0
VERTEX
  5
34B
  8
BGTBAS-0
 10
1002.2613072989
 20
752.3199109514
 30
0.0
  0
VERTEX
  5
34C
  8
BGTBAS-0
 10
1004.6574694489
 20
754.7056775759
 30
0.0
  0
VERTEX
  5
34D
  8
BGTBAS-0
 10
1006.591983553
 20
756.6313969385
 30
0.0
  0
SEQEND
  5
9DA
  8
BGTBAS-0
  0
POLYLINE
  5
B7
  8
BGTBAS-0
 66
     1
 10
0.0
 20
0.0
 30
0.0
 70
   128
  0
VERTEX
  5
34E
  8
BGTBAS-0
 10
1122.2613072989
 20
752.3199109514
 30
0.0
  0
VERTEX
  5
34F
  8
BGTBAS-0
 10
1124.6574694489
 20
754.7056775759
 30
0.0
  0
VERTEX
  5
350
  8
BGTBAS-0
 10
1126.591983553
 20
756.6313969385
 30
0.0
  0
SEQEND
  5
9DB
  8
BGTBAS-0
  0
POLYLINE
  5
B8
  8
BGTBAS-0
 66
     1
 10
0.0
 20
0.0
 30
0.0
 70
   128
  0
VERTEX
  5
351
  8
BGTBAS-0
 10
762.2613072989
 20
752.3199109514
 30
0.0
  0
VERTEX
  5
352
  8
BGTBAS-0
 10
764.6574694489
 20
754.7056775759
 30
0.0
  0
VERTEX
  5
353
  8
BGTBAS-0
 10
766.591983553
 20
756.6313969385
 30
0.0
  0
SEQEND
  5
9DC
  8
BGTBAS-0
  0
POLYLINE
  5
B9
  8
BGTBAS-0
 66
     1
 10
0.0
 20
0.0
 30
0.0
 70
   128
  0
VERTEX
  5
354
  8
BGTBAS-0
 10
702.2613072989
 20
752.3199109514
 30
0.0
  0
VERTEX
  5
355
  8
BGTBAS-0
 10
704.6574694489
 20
754.7056775759
 30
0.0
  0
VERTEX
  5
356
  8
BGTBAS-0
 10
706.591983553
 20
756.6313969385
 30
0.0
  0
SEQEND
  5
9DD
  8
BGTBAS-0
  0
POLYLINE
  5
BA
  8
BGTBAS-0
 66
     1
 10
0.0
 20
0.0
 30
0.0
 70
   128
  0
VERTEX
  5
357
  8
BGTBAS-0
 10
1242.2613072989
 20
752.3199109514
 30
0.0
  0
VERTEX
  5
358
  8
BGTBAS-0
 10
1244.6574694489
 20
754.7056775759
 30
0.0
  0
VERTEX
  5
359
  8
BGTBAS-0
 10
1246.591983553
 20
756.6313969385
 30
0.0
  0
SEQEND
  5
9DE
  8
BGTBAS-0
  0
POLYLINE
  5
BB
  8
BGTBAS-0
 66
     1
 10
0.0
 20
0.0
 30
0.0
 70
   128
  0
VERTEX
  5
35A
  8
BGTBAS-0
 10
857.0536146947
 20
951.1718644771
 30
0.0
  0
VERTEX
  5
35B
  8
BGTBAS-0
 10
854.6574694489
 20
953.5571163011
 30
0.0
  0
VERTEX
  5
35C
  8
BGTBAS-0
 10
852.2613072989
 20
955.9428829255
 30
0.0
  0
SEQEND
  5
9DF
  8
BGTBAS-0
  0
POLYLINE
  5
BC
  8
BGTBAS-0
 66
     1
 10
0.0
 20
0.0
 30
0.0
 70
   128
  0
VERTEX
  5
35D
  8
BGTBAS-0
 10
1337.0536146947
 20
951.1718644771
 30
0.0
  0
VERTEX
  5
35E
  8
BGTBAS-0
 10
1334.6574694489
 20
953.5571163011
 30
0.0
  0
VERTEX
  5
35F
  8
BGTBAS-0
 10
1332.2613072989
 20
955.9428829255
 30
0.0
  0
SEQEND
  5
9E0
  8
BGTBAS-0
  0
POLYLINE
  5
BD
  8
BGTBAS-0
 66
     1
 10
0.0
 20
0.0
 30
0.0
 70
   128
  0
VERTEX
  5
360
  8
BGTBAS-0
 10
1097.0536146947
 20
951.1718644771
 30
0.0
  0
VERTEX
  5
361
  8
BGTBAS-0
 10
1094.6574694489
 20
953.5571163011
 30
0.0
  0
VERTEX
  5
362
  8
BGTBAS-0
 10
1092.2613072989
 20
955.9428829255
 30
0.0
  0
SEQEND
  5
9E1
  8
BGTBAS-0
  0
POLYLINE
  5
BE
  8
BGTBAS-0
 66
     1
 10
0.0
 20
0.0
 30
0.0
 70
   128
  0
VERTEX
  5
363
  8
BGTBAS-0
 10
1157.0536146947
 20
951.1718644771
 30
0.0
  0
VERTEX
  5
364
  8
BGTBAS-0
 10
1154.6574694489
 20
953.5571163011
 30
0.0
  0
VERTEX
  5
365
  8
BGTBAS-0
 10
1152.2613072989
 20
955.9428829255
 30
0.0
  0
SEQEND
  5
9E2
  8
BGTBAS-0
  0
POLYLINE
  5
BF
  8
BGTBAS-0
 66
     1
 10
0.0
 20
0.0
 30
0.0
 70
   128
  0
VERTEX
  5
366
  8
BGTBAS-0
 10
1277.0536146947
 20
951.1718644771
 30
0.0
  0
VERTEX
  5
367
  8
BGTBAS-0
 10
1274.6574694489
 20
953.5571163011
 30
0.0
  0
VERTEX
  5
368
  8
BGTBAS-0
 10
1272.2613072989
 20
955.9428829255
 30
0.0
  0
SEQEND
  5
9E3
  8
BGTBAS-0
  0
POLYLINE
  5
C0
  8
BGTBAS-0
 66
     1
 10
0.0
 20
0.0
 30
0.0
 70
   128
  0
VERTEX
  5
369
  8
BGTBAS-0
 10
1037.0536146947
 20
951.1718644771
 30
0.0
  0
VERTEX
  5
36A
  8
BGTBAS-0
 10
1034.6574694489
 20
953.5571163011
 30
0.0
  0
VERTEX
  5
36B
  8
BGTBAS-0
 10
1032.2613072989
 20
955.9428829255
 30
0.0
  0
SEQEND
  5
9E4
  8
BGTBAS-0
  0
POLYLINE
  5
C1
  8
BGTBAS-0
 66
     1
 10
0.0
 20
0.0
 30
0.0
 70
   128
  0
VERTEX
  5
36C
  8
BGTBAS-0
 10
977.0536146947
 20
951.1718644771
 30
0.0
  0
VERTEX
  5
36D
  8
BGTBAS-0
 10
974.6574694489
 20
953.5571163011
 30
0.0
  0
VERTEX
  5
36E
  8
BGTBAS-0
 10
972.2613072989
 20
955.9428829255
 30
0.0
  0
SEQEND
  5
9E5
  8
BGTBAS-0
  0
POLYLINE
  5
C2
  8
BGTBAS-0
 66
     1
 10
0.0
 20
0.0
 30
0.0
 70
   128
  0
VERTEX
  5
36F
  8
BGTBAS-0
 10
1217.0536146947
 20
951.1718644771
 30
0.0
  0
VERTEX
  5
370
  8
BGTBAS-0
 10
1214.6574694489
 20
953.5571163011
 30
0.0
  0
VERTEX
  5
371
  8
BGTBAS-0
 10
1212.2613072989
 20
955.9428829255
 30
0.0
  0
SEQEND
  5
9E6
  8
BGTBAS-0
  0
POLYLINE
  5
C3
  8
BGTBAS-0
 66
     1
 10
0.0
 20
0.0
 30
0.0
 70
   128
  0
VERTEX
  5
372
  8
BGTBAS-0
 10
257.0536146947
 20
951.1718644771
 30
0.0
  0
VERTEX
  5
373
  8
BGTBAS-0
 10
254.6574694489
 20
953.5571163011
 30
0.0
  0
VERTEX
  5
374
  8
BGTBAS-0
 10
252.2613072989
 20
955.9428829255
 30
0.0
  0
SEQEND
  5
9E7
  8
BGTBAS-0
  0
POLYLINE
  5
C4
  8
BGTBAS-0
 66
     1
 10
0.0
 20
0.0
 30
0.0
 70
   128
  0
VERTEX
  5
375
  8
BGTBAS-0
 10
317.0536146947
 20
951.1718644771
 30
0.0
  0
VERTEX
  5
376
  8
BGTBAS-0
 10
314.6574694489
 20
953.5571163011
 30
0.0
  0
VERTEX
  5
377
  8
BGTBAS-0
 10
312.2613072989
 20
955.9428829255
 30
0.0
  0
SEQEND
  5
9E8
  8
BGTBAS-0
  0
POLYLINE
  5
C5
  8
BGTBAS-0
 66
     1
 10
0.0
 20
0.0
 30
0.0
 70
   128
  0
VERTEX
  5
378
  8
BGTBAS-0
 10
497.0536146947
 20
951.1718644771
 30
0.0
  0
VERTEX
  5
379
  8
BGTBAS-0
 10
494.6574694489
 20
953.5571163011
 30
0.0
  0
VERTEX
  5
37A
  8
BGTBAS-0
 10
492.2613072989
 20
955.9428829255
 30
0.0
  0
SEQEND
  5
9E9
  8
BGTBAS-0
  0
POLYLINE
  5
C6
  8
BGTBAS-0
 66
     1
 10
0.0
 20
0.0
 30
0.0
 70
   128
  0
VERTEX
  5
37B
  8
BGTBAS-0
 10
377.0536146947
 20
951.1718644771
 30
0.0
  0
VERTEX
  5
37C
  8
BGTBAS-0
 10
374.6574694489
 20
953.5571163011
 30
0.0
  0
VERTEX
  5
37D
  8
BGTBAS-0
 10
372.2613072989
 20
955.9428829255
 30
0.0
  0
SEQEND
  5
9EA
  8
BGTBAS-0
  0
POLYLINE
  5
C7
  8
BGTBAS-0
 66
     1
 10
0.0
 20
0.0
 30
0.0
 70
   128
  0
VERTEX
  5
37E
  8
BGTBAS-0
 10
437.0536146947
 20
951.1718644771
 30
0.0
  0
VERTEX
  5
37F
  8
BGTBAS-0
 10
434.6574694489
 20
953.5571163011
 30
0.0
  0
VERTEX
  5
380
  8
BGTBAS-0
 10
432.2613072989
 20
955.9428829255
 30
0.0
  0
SEQEND
  5
9EB
  8
BGTBAS-0
  0
POLYLINE
  5
C8
  8
BGTBAS-0
 66
     1
 10
0.0
 20
0.0
 30
0.0
 70
   128
  0
VERTEX
  5
381
  8
BGTBAS-0
 10
797.0536146947
 20
951.1718644771
 30
0.0
  0
VERTEX
  5
382
  8
BGTBAS-0
 10
794.6574694489
 20
953.5571163011
 30
0.0
  0
VERTEX
  5
383
  8
BGTBAS-0
 10
792.2613072989
 20
955.9428829255
 30
0.0
  0
SEQEND
  5
9EC
  8
BGTBAS-0
  0
POLYLINE
  5
C9
  8
BGTBAS-0
 66
     1
 10
0.0
 20
0.0
 30
0.0
 70
   128
  0
VERTEX
  5
384
  8
BGTBAS-0
 10
557.0536146947
 20
951.1718644771
 30
0.0
  0
VERTEX
  5
385
  8
BGTBAS-0
 10
554.6574694489
 20
953.5571163011
 30
0.0
  0
VERTEX
  5
386
  8
BGTBAS-0
 10
552.2613072989
 20
955.9428829255
 30
0.0
  0
SEQEND
  5
9ED
  8
BGTBAS-0
  0
POLYLINE
  5
CA
  8
BGTBAS-0
 66
     1
 10
0.0
 20
0.0
 30
0.0
 70
   128
  0
VERTEX
  5
387
  8
BGTBAS-0
 10
617.0536146947
 20
951.1718644771
 30
0.0
  0
VERTEX
  5
388
  8
BGTBAS-0
 10
614.6574694489
 20
953.5571163011
 30
0.0
  0
VERTEX
  5
389
  8
BGTBAS-0
 10
612.2613072989
 20
955.9428829255
 30
0.0
  0
SEQEND
  5
9EE
  8
BGTBAS-0
  0
POLYLINE
  5
CB
  8
BGTBAS-0
 66
     1
 10
0.0
 20
0.0
 30
0.0
 70
   128
  0
VERTEX
  5
38A
  8
BGTBAS-0
 10
737.0536146947
 20
951.1718644771
 30
0.0
  0
VERTEX
  5
38B
  8
BGTBAS-0
 10
734.6574694489
 20
953.5571163011
 30
0.0
  0
VERTEX
  5
38C
  8
BGTBAS-0
 10
732.2613072989
 20
955.9428829255
 30
0.0
  0
SEQEND
  5
9EF
  8
BGTBAS-0
  0
POLYLINE
  5
CC
  8
BGTBAS-0
 66
     1
 10
0.0
 20
0.0
 30
0.0
 70
   128
  0
VERTEX
  5
38D
  8
BGTBAS-0
 10
677.0536146947
 20
951.1718644771
 30
0.0
  0
VERTEX
  5
38E
  8
BGTBAS-0
 10
674.6574694489
 20
953.5571163011
 30
0.0
  0
VERTEX
  5
38F
  8
BGTBAS-0
 10
672.2613072989
 20
955.9428829255
 30
0.0
  0
SEQEND
  5
9F0
  8
BGTBAS-0
  0
POLYLINE
  5
CD
  8
BGTBAS-0
 66
     1
 10
0.0
 20
0.0
 30
0.0
 70
   128
  0
VERTEX
  5
390
  8
BGTBAS-0
 10
917.0536146947
 20
951.1718644771
 30
0.0
  0
VERTEX
  5
391
  8
BGTBAS-0
 10
914.6574694489
 20
953.5571163011
 30
0.0
  0
VERTEX
  5
392
  8
BGTBAS-0
 10
912.2613072989
 20
955.9428829255
 30
0.0
  0
SEQEND
  5
9F1
  8
BGTBAS-0
  0
POLYLINE
  5
CE
  8
BGTBAS-0
 66
     1
 10
0.0
 20
0.0
 30
0.0
 70
   128
  0
VERTEX
  5
393
  8
BGTBAS-0
 10
1397.0536146947
 20
951.1718644771
 30
0.0
  0
VERTEX
  5
394
  8
BGTBAS-0
 10
1394.6574694489
 20
953.5571163011
 30
0.0
  0
VERTEX
  5
395
  8
BGTBAS-0
 10
1392.2613072989
 20
955.9428829255
 30
0.0
  0
SEQEND
  5
9F2
  8
BGTBAS-0
  0
LINE
  5
CF
  8
BGTBAS-0
 10
477.1267088885
 20
951.6313969385
 30
0.0
 11
436.591983553
 21
951.6313969385
 31
0.0
  0
LINE
  5
D0
  8
BGTBAS-0
 10
1017.1267088885
 20
951.6313969385
 30
0.0
 11
976.591983553
 21
951.6313969385
 31
0.0
  0
LINE
  5
D1
  8
BGTBAS-0
 10
526.1267088885
 20
756.6313969385
 30
0.0
 11
566.6505849711
 21
756.6313969385
 31
0.0
  0
LINE
  5
D2
  8
BGTBAS-0
 10
886.1267088885
 20
756.6313969385
 30
0.0
 11
926.6505849711
 21
756.6313969385
 31
0.0
  0
LINE
  5
D3
  8
BGTBAS-0
 10
957.1267088885
 20
951.6313969385
 30
0.0
 11
916.591983553
 21
951.6313969385
 31
0.0
  0
LINE
  5
D4
  8
BGTBAS-0
 10
1137.1267088885
 20
951.6313969385
 30
0.0
 11
1096.591983553
 21
951.6313969385
 31
0.0
  0
LINE
  5
D5
  8
BGTBAS-0
 10
646.1267088885
 20
756.6313969385
 30
0.0
 11
686.6505849708
 21
756.6313969385
 31
0.0
  0
LINE
  5
D6
  8
BGTBAS-0
 10
1426.1267088885
 20
756.6313969385
 30
0.0
 11
1455.6125515785
 21
756.6313969385
 31
0.0
  0
LINE
  5
D7
  8
BGTBAS-0
 10
205.6125515785
 20
756.6313969385
 30
0.0
 11
266.6505849704
 21
756.6313969385
 31
0.0
  0
LINE
  5
D8
  8
BGTBAS-0
 10
897.1267088885
 20
951.6313969385
 30
0.0
 11
856.591983553
 21
951.6313969385
 31
0.0
  0
LINE
  5
D9
  8
BGTBAS-0
 10
357.1267088885
 20
951.6313969385
 30
0.0
 11
316.591983553
 21
951.6313969385
 31
0.0
  0
LINE
  5
DA
  8
BGTBAS-0
 10
597.1267088885
 20
951.6313969385
 30
0.0
 11
556.591983553
 21
951.6313969385
 31
0.0
  0
LINE
  5
DB
  8
BGTBAS-0
 10
706.1267088885
 20
756.6313969385
 30
0.0
 11
746.6505849706
 21
756.6313969385
 31
0.0
  0
LINE
  5
DC
  8
BGTBAS-0
 10
1246.1267088885
 20
756.6313969385
 30
0.0
 11
1286.6505849704
 21
756.6313969385
 31
0.0
  0
LINE
  5
DD
  8
BGTBAS-0
 10
1257.1267088885
 20
951.6313969385
 30
0.0
 11
1216.591983553
 21
951.6313969385
 31
0.0
  0
LINE
  5
DE
  8
BGTBAS-0
 10
286.1267088885
 20
756.6313969385
 30
0.0
 11
326.6505849705
 21
756.6313969385
 31
0.0
  0
LINE
  5
DF
  8
BGTBAS-0
 10
717.1267088885
 20
951.6313969385
 30
0.0
 11
676.591983553
 21
951.6313969385
 31
0.0
  0
LINE
  5
E0
  8
BGTBAS-0
 10
1377.1267088885
 20
951.6313969385
 30
0.0
 11
1336.591983553
 21
951.6313969385
 31
0.0
  0
LINE
  5
E1
  8
BGTBAS-0
 10
1437.1267088885
 20
951.6313969385
 30
0.0
 11
1396.591983553
 21
951.6313969385
 31
0.0
  0
LINE
  5
E2
  8
BGTBAS-0
 10
1126.1267088885
 20
756.6313969385
 30
0.0
 11
1166.6505849705
 21
756.6313969385
 31
0.0
  0
LINE
  5
E3
  8
BGTBAS-0
 10
1077.1267088885
 20
951.6313969385
 30
0.0
 11
1036.591983553
 21
951.6313969385
 31
0.0
  0
LINE
  5
E4
  8
BGTBAS-0
 10
1317.1267088885
 20
951.6313969385
 30
0.0
 11
1276.591983553
 21
951.6313969385
 31
0.0
  0
LINE
  5
E5
  8
BGTBAS-0
 10
1197.1267088885
 20
951.6313969385
 30
0.0
 11
1156.591983553
 21
951.6313969385
 31
0.0
  0
LINE
  5
E6
  8
BGTBAS-0
 10
1066.1267088885
 20
756.6313969385
 30
0.0
 11
1106.6505849704
 21
756.6313969385
 31
0.0
  0
LINE
  5
E7
  8
BGTBAS-0
 10
1306.1267088885
 20
756.6313969385
 30
0.0
 11
1346.6505849705
 21
756.6313969385
 31
0.0
  0
LINE
  5
E8
  8
BGTBAS-0
 10
946.1267088885
 20
756.6313969385
 30
0.0
 11
986.6505849704
 21
756.6313969385
 31
0.0
  0
LINE
  5
E9
  8
BGTBAS-0
 10
417.1267088885
 20
951.6313969385
 30
0.0
 11
376.591983553
 21
951.6313969385
 31
0.0
  0
LINE
  5
EA
  8
BGTBAS-0
 10
826.1267088885
 20
756.6313969385
 30
0.0
 11
866.6505849704
 21
756.6313969385
 31
0.0
  0
LINE
  5
EB
  8
BGTBAS-0
 10
406.1267088885
 20
756.6313969385
 30
0.0
 11
446.6505849704
 21
756.6313969385
 31
0.0
  0
LINE
  5
EC
  8
BGTBAS-0
 10
1186.1267088885
 20
756.6313969385
 30
0.0
 11
1226.6505849704
 21
756.6313969385
 31
0.0
  0
LINE
  5
ED
  8
BGTBAS-0
 10
237.1267088885
 20
951.6313969385
 30
0.0
 11
205.6125515785
 21
951.6313969385
 31
0.0
  0
LINE
  5
EE
  8
BGTBAS-0
 10
1006.1267088885
 20
756.6313969385
 30
0.0
 11
1046.6505849704
 21
756.6313969385
 31
0.0
  0
LINE
  5
EF
  8
BGTBAS-0
 10
837.1267088885
 20
951.6313969385
 30
0.0
 11
796.591983553
 21
951.6313969385
 31
0.0
  0
LINE
  5
F0
  8
BGTBAS-0
 10
657.1267088885
 20
951.6313969385
 30
0.0
 11
616.591983553
 21
951.6313969385
 31
0.0
  0
LINE
  5
F1
  8
BGTBAS-0
 10
537.1267088885
 20
951.6313969385
 30
0.0
 11
496.591983553
 21
951.6313969385
 31
0.0
  0
LINE
  5
F2
  8
BGTBAS-0
 10
297.1267088885
 20
951.6313969385
 30
0.0
 11
256.591983553
 21
951.6313969385
 31
0.0
  0
LINE
  5
F3
  8
BGTBAS-0
 10
1366.1267088885
 20
756.6313969385
 30
0.0
 11
1406.6505849704
 21
756.6313969385
 31
0.0
  0
LINE
  5
F4
  8
BGTBAS-0
 10
777.1267088885
 20
951.6313969385
 30
0.0
 11
736.591983553
 21
951.6313969385
 31
0.0
  0
LINE
  5
F5
  8
BGTBAS-0
 10
466.1267088885
 20
756.6313969385
 30
0.0
 11
506.6505849704
 21
756.6313969385
 31
0.0
  0
LINE
  5
F6
  8
BGTBAS-0
 10
586.1267088885
 20
756.6313969385
 30
0.0
 11
626.6505849704
 21
756.6313969385
 31
0.0
  0
LINE
  5
F7
  8
BGTBAS-0
 10
346.1267088885
 20
756.6313969385
 30
0.0
 11
386.6505849704
 21
756.6313969385
 31
0.0
  0
LINE
  5
F8
  8
BGTBAS-0
 10
766.1267088885
 20
756.6313969385
 30
0.0
 11
806.6505849704
 21
756.6313969385
 31
0.0
  0
LINE
  5
F9
  8
BGTBAS-0
 10
1411.8767088885
 20
751.8813969385
 30
0.0
 11
1421.3767088885
 21
751.8813969385
 31
0.0
  0
LINE
  5
FA
  8
BGTBAS-0
 10
1171.8767088885
 20
751.8813969385
 30
0.0
 11
1181.3767088885
 21
751.8813969385
 31
0.0
  0
LINE
  5
FB
  8
BGTBAS-0
 10
931.8767088885
 20
751.8813969385
 30
0.0
 11
941.3767088885
 21
751.8813969385
 31
0.0
  0
LINE
  5
FC
  8
BGTBAS-0
 10
1091.3767088885
 20
956.3813969385
 30
0.0
 11
1081.8767088885
 21
956.3813969385
 31
0.0
  0
LINE
  5
FD
  8
BGTBAS-0
 10
1331.3767088885
 20
956.3813969385
 30
0.0
 11
1321.8767088885
 21
956.3813969385
 31
0.0
  0
LINE
  5
FE
  8
BGTBAS-0
 10
1351.8767088885
 20
751.8813969385
 30
0.0
 11
1361.3767088885
 21
751.8813969385
 31
0.0
  0
LINE
  5
FF
  8
BGTBAS-0
 10
851.3767088885
 20
956.3813969385
 30
0.0
 11
841.8767088885
 21
956.3813969385
 31
0.0
  0
LINE
  5
100
  8
BGTBAS-0
 10
991.8767088885
 20
751.8813969385
 30
0.0
 11
1001.3767088885
 21
751.8813969385
 31
0.0
  0
LINE
  5
101
  8
BGTBAS-0
 10
1111.8767088885
 20
751.8813969385
 30
0.0
 11
1121.3767088885
 21
751.8813969385
 31
0.0
  0
LINE
  5
102
  8
BGTBAS-0
 10
731.3767088885
 20
956.3813969385
 30
0.0
 11
721.8767088885
 21
956.3813969385
 31
0.0
  0
LINE
  5
103
  8
BGTBAS-0
 10
971.3767088885
 20
956.3813969385
 30
0.0
 11
961.8767088885
 21
956.3813969385
 31
0.0
  0
LINE
  5
104
  8
BGTBAS-0
 10
871.8767088885
 20
751.8813969385
 30
0.0
 11
881.3767088885
 21
751.8813969385
 31
0.0
  0
LINE
  5
105
  8
BGTBAS-0
 10
811.8767088885
 20
751.8813969385
 30
0.0
 11
821.3767088885
 21
751.8813969385
 31
0.0
  0
LINE
  5
106
  8
BGTBAS-0
 10
1231.8767088885
 20
751.8813969385
 30
0.0
 11
1241.3767088885
 21
751.8813969385
 31
0.0
  0
LINE
  5
107
  8
BGTBAS-0
 10
1211.3767088885
 20
956.3813969385
 30
0.0
 11
1201.8767088885
 21
956.3813969385
 31
0.0
  0
LINE
  5
108
  8
BGTBAS-0
 10
911.3767088885
 20
956.3813969385
 30
0.0
 11
901.8767088885
 21
956.3813969385
 31
0.0
  0
LINE
  5
109
  8
BGTBAS-0
 10
631.8767088885
 20
751.8813969385
 30
0.0
 11
641.3767088885
 21
751.8813969385
 31
0.0
  0
LINE
  5
10A
  8
BGTBAS-0
 10
331.8767088885
 20
751.8813969385
 30
0.0
 11
341.3767088885
 21
751.8813969385
 31
0.0
  0
LINE
  5
10B
  8
BGTBAS-0
 10
511.8767088885
 20
751.8813969385
 30
0.0
 11
521.3767088885
 21
751.8813969385
 31
0.0
  0
LINE
  5
10C
  8
BGTBAS-0
 10
451.8767088885
 20
751.8813969385
 30
0.0
 11
461.3767088885
 21
751.8813969385
 31
0.0
  0
LINE
  5
10D
  8
BGTBAS-0
 10
271.8767088885
 20
751.8813969385
 30
0.0
 11
281.3767088885
 21
751.8813969385
 31
0.0
  0
LINE
  5
10E
  8
BGTBAS-0
 10
691.8767088885
 20
751.8813969385
 30
0.0
 11
701.3767088885
 21
751.8813969385
 31
0.0
  0
LINE
  5
10F
  8
BGTBAS-0
 10
391.8767088885
 20
751.8813969385
 30
0.0
 11
401.3767088885
 21
751.8813969385
 31
0.0
  0
LINE
  5
110
  8
BGTBAS-0
 10
571.8767088885
 20
751.8813969385
 30
0.0
 11
581.3767088885
 21
751.8813969385
 31
0.0
  0
LINE
  5
111
  8
BGTBAS-0
 10
751.8767088885
 20
751.8813969385
 30
0.0
 11
761.3767088885
 21
751.8813969385
 31
0.0
  0
LINE
  5
112
  8
BGTBAS-0
 10
371.3767088885
 20
956.3813969385
 30
0.0
 11
361.8767088885
 21
956.3813969385
 31
0.0
  0
LINE
  5
113
  8
BGTBAS-0
 10
311.3767088885
 20
956.3813969385
 30
0.0
 11
301.8767088885
 21
956.3813969385
 31
0.0
  0
LINE
  5
114
  8
BGTBAS-0
 10
551.3767088885
 20
956.3813969385
 30
0.0
 11
541.8767088885
 21
956.3813969385
 31
0.0
  0
LINE
  5
115
  8
BGTBAS-0
 10
251.3767088885
 20
956.3813969385
 30
0.0
 11
241.8767088885
 21
956.3813969385
 31
0.0
  0
LINE
  5
116
  8
BGTBAS-0
 10
1391.3767088885
 20
956.3813969385
 30
0.0
 11
1381.8767088885
 21
956.3813969385
 31
0.0
  0
LINE
  5
117
  8
BGTBAS-0
 10
791.3767088885
 20
956.3813969385
 30
0.0
 11
781.8767088885
 21
956.3813969385
 31
0.0
  0
LINE
  5
118
  8
BGTBAS-0
 10
611.3767088885
 20
956.3813969385
 30
0.0
 11
601.8767088885
 21
956.3813969385
 31
0.0
  0
LINE
  5
119
  8
BGTBAS-0
 10
491.3767088885
 20
956.3813969385
 30
0.0
 11
481.8767088885
 21
956.3813969385
 31
0.0
  0
LINE
  5
11A
  8
BGTBAS-0
 10
431.3767088885
 20
956.3813969385
 30
0.0
 11
421.8767088885
 21
956.3813969385
 31
0.0
  0
LINE
  5
11B
  8
BGTBAS-0
 10
1291.8767088885
 20
751.8813969385
 30
0.0
 11
1301.3767088885
 21
751.8813969385
 31
0.0
  0
LINE
  5
11C
  8
BGTBAS-0
 10
671.3767088885
 20
956.3813969385
 30
0.0
 11
661.8767088885
 21
956.3813969385
 31
0.0
  0
LINE
  5
11D
  8
BGTBAS-0
 10
1051.8767088885
 20
751.8813969385
 30
0.0
 11
1061.3767088885
 21
751.8813969385
 31
0.0
  0
LINE
  5
11E
  8
BGTBAS-0
 10
1031.3767088885
 20
956.3813969385
 30
0.0
 11
1021.8767088885
 21
956.3813969385
 31
0.0
  0
LINE
  5
11F
  8
BGTBAS-0
 10
1151.3767088885
 20
956.3813969385
 30
0.0
 11
1141.8767088885
 21
956.3813969385
 31
0.0
  0
LINE
  5
120
  8
BGTBAS-0
 10
1271.3767088885
 20
956.3813969385
 30
0.0
 11
1261.8767088885
 21
956.3813969385
 31
0.0
  0
LINE
  5
121
  8
BGTBAS-0
 10
1451.3767088885
 20
956.3813969385
 30
0.0
 11
1441.8767088885
 21
956.3813969385
 31
0.0
  0
POLYLINE
  5
122
  8
BGTBAS-0
 66
     1
 10
0.0
 20
0.0
 30
0.0
 70
   128
  0
VERTEX
  5
396
  8
BGTBAS-0
 10
1455.6810340039
 20
952.5382108369
 30
0.0
  0
VERTEX
  5
397
  8
BGTBAS-0
 10
1454.656525763
 20
953.5580614969
 30
0.0
  0
VERTEX
  5
398
  8
BGTBAS-0
 10
1452.2603798066
 20
955.943811103
 30
0.0
  0
SEQEND
  5
9F3
  8
BGTBAS-0
  0
POLYLINE
  5
123
  8
BGTBAS-0
 66
     1
 10
0.0
 20
0.0
 30
0.0
 70
   128
  0
VERTEX
  5
399
  8
BGTBAS-0
 10
320.7973962788
 20
813.3147336746
 30
0.0
  0
VERTEX
  5
39A
  8
BGTBAS-0
 10
322.066012292
 20
800.9829180069
 30
0.0
  0
VERTEX
  5
39B
  8
BGTBAS-0
 10
323.3755977616
 20
789.5186134928
 30
0.0
  0
VERTEX
  5
39C
  8
BGTBAS-0
 10
324.7178569242
 20
779.1936778779
 30
0.0
  0
VERTEX
  5
39D
  8
BGTBAS-0
 10
326.0546436146
 20
770.3158100942
 30
0.0
  0
VERTEX
  5
39E
  8
BGTBAS-0
 10
327.5265981643
 20
762.2295900847
 30
0.0
  0
VERTEX
  5
39F
  8
BGTBAS-0
 10
328.9985527139
 20
756.3783508923
 30
0.0
  0
VERTEX
  5
3A0
  8
BGTBAS-0
 10
330.5265981643
 20
752.8764502032
 30
0.0
  0
VERTEX
  5
3A1
  8
BGTBAS-0
 10
331.8767088885
 20
752.0126110511
 30
0.0
  0
SEQEND
  5
9F4
  8
BGTBAS-0
  0
POLYLINE
  5
124
  8
BGTBAS-0
 66
     1
 10
0.0
 20
0.0
 30
0.0
 70
   128
  0
VERTEX
  5
3A2
  8
BGTBAS-0
 10
314.7816397628
 20
827.3510893048
 30
0.0
  0
VERTEX
  5
3A3
  8
BGTBAS-0
 10
316.4044608313
 20
811.8417169072
 30
0.0
  0
VERTEX
  5
3A4
  8
BGTBAS-0
 10
317.9894331654
 20
797.6623366567
 30
0.0
  0
VERTEX
  5
3A5
  8
BGTBAS-0
 10
319.644134466
 20
784.9262499366
 30
0.0
  0
VERTEX
  5
3A6
  8
BGTBAS-0
 10
321.3046436146
 20
774.2094437129
 30
0.0
  0
VERTEX
  5
3A7
  8
BGTBAS-0
 10
322.7765981643
 20
766.4988671757
 30
0.0
  0
VERTEX
  5
3A8
  8
BGTBAS-0
 10
324.2485527139
 20
760.9194459409
 30
0.0
  0
VERTEX
  5
3A9
  8
BGTBAS-0
 10
325.7765981643
 20
757.5802252349
 30
0.0
  0
VERTEX
  5
3AA
  8
BGTBAS-0
 10
326.1714346365
 20
757.3393334116
 30
0.0
  0
SEQEND
  5
9F5
  8
BGTBAS-0
  0
ARC
  5
125
  8
BGTBAS-0
 10
463.6108154423
 20
882.8297168932
 30
0.0
 40
158.8332634716516
 50
200.4438197994
 51
205.9546818551
  0
POLYLINE
  5
126
  8
BGTBAS-0
 66
     1
 10
0.0
 20
0.0
 30
0.0
 70
   128
  0
VERTEX
  5
3AB
  8
BGTBAS-0
 10
920.7973962788
 20
813.3147336746
 30
0.0
  0
VERTEX
  5
3AC
  8
BGTBAS-0
 10
922.066012292
 20
800.9829180069
 30
0.0
  0
VERTEX
  5
3AD
  8
BGTBAS-0
 10
923.3755977616
 20
789.5186134928
 30
0.0
  0
VERTEX
  5
3AE
  8
BGTBAS-0
 10
924.7178569242
 20
779.1936778779
 30
0.0
  0
VERTEX
  5
3AF
  8
BGTBAS-0
 10
926.0546436146
 20
770.3158100942
 30
0.0
  0
VERTEX
  5
3B0
  8
BGTBAS-0
 10
927.5265981643
 20
762.2295900847
 30
0.0
  0
VERTEX
  5
3B1
  8
BGTBAS-0
 10
928.9985527139
 20
756.3783508923
 30
0.0
  0
VERTEX
  5
3B2
  8
BGTBAS-0
 10
930.5265981643
 20
752.8764502032
 30
0.0
  0
VERTEX
  5
3B3
  8
BGTBAS-0
 10
931.8767088885
 20
752.0126110511
 30
0.0
  0
SEQEND
  5
9F6
  8
BGTBAS-0
  0
POLYLINE
  5
127
  8
BGTBAS-0
 66
     1
 10
0.0
 20
0.0
 30
0.0
 70
   128
  0
VERTEX
  5
3B4
  8
BGTBAS-0
 10
914.7816185246
 20
827.3512955055
 30
0.0
  0
VERTEX
  5
3B5
  8
BGTBAS-0
 10
916.4044456615
 20
811.841859505
 30
0.0
  0
VERTEX
  5
3B6
  8
BGTBAS-0
 10
917.9894227331
 20
797.6624235532
 30
0.0
  0
VERTEX
  5
3B7
  8
BGTBAS-0
 10
919.6441291141
 20
784.9262878013
 30
0.0
  0
VERTEX
  5
3B8
  8
BGTBAS-0
 10
921.3046436146
 20
774.2094437129
 30
0.0
  0
VERTEX
  5
3B9
  8
BGTBAS-0
 10
922.7765981643
 20
766.4988671757
 30
0.0
  0
VERTEX
  5
3BA
  8
BGTBAS-0
 10
924.2485527139
 20
760.9194459409
 30
0.0
  0
VERTEX
  5
3BB
  8
BGTBAS-0
 10
925.7765981643
 20
757.5802252349
 30
0.0
  0
VERTEX
  5
3BC
  8
BGTBAS-0
 10
926.1714348291
 20
757.3393332941
 30
0.0
  0
SEQEND
  5
9F7
  8
BGTBAS-0
  0
ARC
  5
128
  8
BGTBAS-0
 10
1063.610815442
 20
882.8297168931
 30
0.0
 40
158.8332634713168
 50
200.4438197994
 51
205.9546818551
  0
POLYLINE
  5
129
  8
BGTBAS-0
 66
     1
 10
0.0
 20
0.0
 30
0.0
 70
   128
  0
VERTEX
  5
3BD
  8
BGTBAS-0
 10
740.7973962788
 20
813.3147336746
 30
0.0
  0
VERTEX
  5
3BE
  8
BGTBAS-0
 10
742.066012292
 20
800.9829180069
 30
0.0
  0
VERTEX
  5
3BF
  8
BGTBAS-0
 10
743.3755977616
 20
789.5186134928
 30
0.0
  0
VERTEX
  5
3C0
  8
BGTBAS-0
 10
744.7178569242
 20
779.1936778779
 30
0.0
  0
VERTEX
  5
3C1
  8
BGTBAS-0
 10
746.0546436146
 20
770.3158100942
 30
0.0
  0
VERTEX
  5
3C2
  8
BGTBAS-0
 10
747.5265981643
 20
762.2295900847
 30
0.0
  0
VERTEX
  5
3C3
  8
BGTBAS-0
 10
748.9985527139
 20
756.3783508923
 30
0.0
  0
VERTEX
  5
3C4
  8
BGTBAS-0
 10
750.5265981643
 20
752.8764502032
 30
0.0
  0
VERTEX
  5
3C5
  8
BGTBAS-0
 10
751.8767088885
 20
752.0126110511
 30
0.0
  0
SEQEND
  5
9F8
  8
BGTBAS-0
  0
POLYLINE
  5
12A
  8
BGTBAS-0
 66
     1
 10
0.0
 20
0.0
 30
0.0
 70
   128
  0
VERTEX
  5
3C6
  8
BGTBAS-0
 10
734.7816382239
 20
827.3511042454
 30
0.0
  0
VERTEX
  5
3C7
  8
BGTBAS-0
 10
736.4044597322
 20
811.8417272393
 30
0.0
  0
VERTEX
  5
3C8
  8
BGTBAS-0
 10
737.9894324096
 20
797.6623429529
 30
0.0
  0
VERTEX
  5
3C9
  8
BGTBAS-0
 10
739.6441340782
 20
784.9262526801
 30
0.0
  0
VERTEX
  5
3CA
  8
BGTBAS-0
 10
741.3046436146
 20
774.2094437129
 30
0.0
  0
VERTEX
  5
3CB
  8
BGTBAS-0
 10
742.7765981643
 20
766.4988671757
 30
0.0
  0
VERTEX
  5
3CC
  8
BGTBAS-0
 10
744.2485527139
 20
760.9194459409
 30
0.0
  0
VERTEX
  5
3CD
  8
BGTBAS-0
 10
745.7765981643
 20
757.5802252349
 30
0.0
  0
VERTEX
  5
3CE
  8
BGTBAS-0
 10
746.1714346505
 20
757.3393334031
 30
0.0
  0
SEQEND
  5
9F9
  8
BGTBAS-0
  0
ARC
  5
12B
  8
BGTBAS-0
 10
883.6108154423
 20
882.8297168932
 30
0.0
 40
158.8332634715948
 50
200.4438197994
 51
205.9546818551
  0
POLYLINE
  5
12C
  8
BGTBAS-0
 66
     1
 10
0.0
 20
0.0
 30
0.0
 70
   128
  0
VERTEX
  5
3CF
  8
BGTBAS-0
 10
560.7973962788
 20
813.3147336746
 30
0.0
  0
VERTEX
  5
3D0
  8
BGTBAS-0
 10
562.066012292
 20
800.9829180069
 30
0.0
  0
VERTEX
  5
3D1
  8
BGTBAS-0
 10
563.3755977616
 20
789.5186134928
 30
0.0
  0
VERTEX
  5
3D2
  8
BGTBAS-0
 10
564.7178569242
 20
779.1936778779
 30
0.0
  0
VERTEX
  5
3D3
  8
BGTBAS-0
 10
566.0546436146
 20
770.3158100942
 30
0.0
  0
VERTEX
  5
3D4
  8
BGTBAS-0
 10
567.5265981643
 20
762.2295900847
 30
0.0
  0
VERTEX
  5
3D5
  8
BGTBAS-0
 10
568.9985527139
 20
756.3783508923
 30
0.0
  0
VERTEX
  5
3D6
  8
BGTBAS-0
 10
570.5265981643
 20
752.8764502032
 30
0.0
  0
VERTEX
  5
3D7
  8
BGTBAS-0
 10
571.8767088885
 20
752.0126110511
 30
0.0
  0
SEQEND
  5
9FA
  8
BGTBAS-0
  0
POLYLINE
  5
12D
  8
BGTBAS-0
 66
     1
 10
0.0
 20
0.0
 30
0.0
 70
   128
  0
VERTEX
  5
3D8
  8
BGTBAS-0
 10
554.7816151988
 20
827.3513277958
 30
0.0
  0
VERTEX
  5
3D9
  8
BGTBAS-0
 10
556.404443286
 20
811.8418818354
 30
0.0
  0
VERTEX
  5
3DA
  8
BGTBAS-0
 10
557.9894210994
 20
797.6624371609
 30
0.0
  0
VERTEX
  5
3DB
  8
BGTBAS-0
 10
559.644128276
 20
784.9262937308
 30
0.0
  0
VERTEX
  5
3DC
  8
BGTBAS-0
 10
561.3046436146
 20
774.2094437129
 30
0.0
  0
VERTEX
  5
3DD
  8
BGTBAS-0
 10
562.7765981643
 20
766.4988671757
 30
0.0
  0
VERTEX
  5
3DE
  8
BGTBAS-0
 10
564.2485527139
 20
760.9194459409
 30
0.0
  0
VERTEX
  5
3DF
  8
BGTBAS-0
 10
565.7765981643
 20
757.5802252349
 30
0.0
  0
VERTEX
  5
3E0
  8
BGTBAS-0
 10
566.1714348589
 20
757.3393332759
 30
0.0
  0
SEQEND
  5
9FB
  8
BGTBAS-0
  0
ARC
  5
12E
  8
BGTBAS-0
 10
703.6108154423
 20
882.8297168932
 30
0.0
 40
158.8332634716812
 50
200.4438197994
 51
205.9546818551
  0
POLYLINE
  5
12F
  8
BGTBAS-0
 66
     1
 10
0.0
 20
0.0
 30
0.0
 70
   128
  0
VERTEX
  5
3E1
  8
BGTBAS-0
 10
680.7973962788
 20
813.3147336746
 30
0.0
  0
VERTEX
  5
3E2
  8
BGTBAS-0
 10
682.066012292
 20
800.9829180069
 30
0.0
  0
VERTEX
  5
3E3
  8
BGTBAS-0
 10
683.3755977616
 20
789.5186134928
 30
0.0
  0
VERTEX
  5
3E4
  8
BGTBAS-0
 10
684.7178569242
 20
779.1936778779
 30
0.0
  0
VERTEX
  5
3E5
  8
BGTBAS-0
 10
686.0546436146
 20
770.3158100942
 30
0.0
  0
VERTEX
  5
3E6
  8
BGTBAS-0
 10
687.5265981643
 20
762.2295900847
 30
0.0
  0
VERTEX
  5
3E7
  8
BGTBAS-0
 10
688.9985527139
 20
756.3783508923
 30
0.0
  0
VERTEX
  5
3E8
  8
BGTBAS-0
 10
690.5265981643
 20
752.8764502032
 30
0.0
  0
VERTEX
  5
3E9
  8
BGTBAS-0
 10
691.8767088885
 20
752.0126110511
 30
0.0
  0
SEQEND
  5
9FC
  8
BGTBAS-0
  0
POLYLINE
  5
130
  8
BGTBAS-0
 66
     1
 10
0.0
 20
0.0
 30
0.0
 70
   128
  0
VERTEX
  5
3EA
  8
BGTBAS-0
 10
674.7816280713
 20
827.3512028172
 30
0.0
  0
VERTEX
  5
3EB
  8
BGTBAS-0
 10
676.4044524804
 20
811.8417954066
 30
0.0
  0
VERTEX
  5
3EC
  8
BGTBAS-0
 10
677.9894274225
 20
797.6623844928
 30
0.0
  0
VERTEX
  5
3ED
  8
BGTBAS-0
 10
679.6441315198
 20
784.9262707809
 30
0.0
  0
VERTEX
  5
3EE
  8
BGTBAS-0
 10
681.3046436146
 20
774.2094437129
 30
0.0
  0
VERTEX
  5
3EF
  8
BGTBAS-0
 10
682.7765981643
 20
766.4988671757
 30
0.0
  0
VERTEX
  5
3F0
  8
BGTBAS-0
 10
684.2485527139
 20
760.9194459409
 30
0.0
  0
VERTEX
  5
3F1
  8
BGTBAS-0
 10
685.7765981643
 20
757.5802252349
 30
0.0
  0
VERTEX
  5
3F2
  8
BGTBAS-0
 10
686.1714347435
 20
757.3393333463
 30
0.0
  0
SEQEND
  5
9FD
  8
BGTBAS-0
  0
ARC
  5
131
  8
BGTBAS-0
 10
823.6108154423
 20
882.8297168932
 30
0.0
 40
158.8332634716728
 50
200.4438197994
 51
205.9546818551
  0
POLYLINE
  5
132
  8
BGTBAS-0
 66
     1
 10
0.0
 20
0.0
 30
0.0
 70
   128
  0
VERTEX
  5
3F3
  8
BGTBAS-0
 10
477.1267088885
 20
951.506278347
 30
0.0
  0
VERTEX
  5
3F4
  8
BGTBAS-0
 10
477.3046436146
 20
951.614837266
 30
0.0
  0
VERTEX
  5
3F5
  8
BGTBAS-0
 10
478.7765981643
 20
950.1501091849
 30
0.0
  0
VERTEX
  5
3F6
  8
BGTBAS-0
 10
480.2485527139
 20
946.3502803337
 30
0.0
  0
VERTEX
  5
3F7
  8
BGTBAS-0
 10
481.7765981643
 20
940.2186691714
 30
0.0
  0
VERTEX
  5
3F8
  8
BGTBAS-0
 10
483.3046436146
 20
931.9409635031
 30
0.0
  0
VERTEX
  5
3F9
  8
BGTBAS-0
 10
484.7765981643
 20
921.8604071464
 30
0.0
  0
VERTEX
  5
3FA
  8
BGTBAS-0
 10
486.2485527139
 20
910.1327336789
 30
0.0
  0
VERTEX
  5
3FB
  8
BGTBAS-0
 10
487.862028733
 20
896.0995512216
 30
0.0
  0
VERTEX
  5
3FC
  8
BGTBAS-0
 10
489.4719644599
 20
880.912114769
 30
0.0
  0
SEQEND
  5
9FE
  8
BGTBAS-0
  0
POLYLINE
  5
133
  8
BGTBAS-0
 66
     1
 10
0.0
 20
0.0
 30
0.0
 70
   128
  0
VERTEX
  5
3FD
  8
BGTBAS-0
 10
480.9629623683
 20
955.6655418738
 30
0.0
  0
VERTEX
  5
3FE
  8
BGTBAS-0
 10
482.0546436146
 20
956.3640305128
 30
0.0
  0
VERTEX
  5
3FF
  8
BGTBAS-0
 10
483.5265981643
 20
954.8279438841
 30
0.0
  0
VERTEX
  5
400
  8
BGTBAS-0
 10
484.9985527139
 20
950.8429951658
 30
0.0
  0
VERTEX
  5
401
  8
BGTBAS-0
 10
486.5265981643
 20
944.4126644853
 30
0.0
  0
VERTEX
  5
402
  8
BGTBAS-0
 10
488.0546436146
 20
935.7316859768
 30
0.0
  0
VERTEX
  5
403
  8
BGTBAS-0
 10
489.5265981643
 20
925.1600255924
 30
0.0
  0
VERTEX
  5
404
  8
BGTBAS-0
 10
490.9985527139
 20
912.8610039304
 30
0.0
  0
VERTEX
  5
405
  8
BGTBAS-0
 10
491.9677602781
 20
904.1704726949
 30
0.0
  0
VERTEX
  5
406
  8
BGTBAS-0
 10
492.9454283662
 20
894.9480602024
 30
0.0
  0
SEQEND
  5
9FF
  8
BGTBAS-0
  0
ARC
  5
134
  8
BGTBAS-0
 10
603.6698750118
 20
860.100247106
 30
0.0
 40
116.0787369097424
 50
162.5298788349
 51
169.6717185279
  0
POLYLINE
  5
135
  8
BGTBAS-0
 66
     1
 10
0.0
 20
0.0
 30
0.0
 70
   128
  0
VERTEX
  5
407
  8
BGTBAS-0
 10
717.1267088885
 20
951.506278347
 30
0.0
  0
VERTEX
  5
408
  8
BGTBAS-0
 10
717.3046436146
 20
951.614837266
 30
0.0
  0
VERTEX
  5
409
  8
BGTBAS-0
 10
718.7765981643
 20
950.1501091849
 30
0.0
  0
VERTEX
  5
40A
  8
BGTBAS-0
 10
720.2485527139
 20
946.3502803337
 30
0.0
  0
VERTEX
  5
40B
  8
BGTBAS-0
 10
721.7765981643
 20
940.2186691714
 30
0.0
  0
VERTEX
  5
40C
  8
BGTBAS-0
 10
723.3046436146
 20
931.9409635031
 30
0.0
  0
VERTEX
  5
40D
  8
BGTBAS-0
 10
724.7765981643
 20
921.8604071464
 30
0.0
  0
VERTEX
  5
40E
  8
BGTBAS-0
 10
726.2485527139
 20
910.1327336789
 30
0.0
  0
VERTEX
  5
40F
  8
BGTBAS-0
 10
727.8620450779
 20
896.0994030492
 30
0.0
  0
VERTEX
  5
410
  8
BGTBAS-0
 10
729.4719964018
 20
880.9118014995
 30
0.0
  0
SEQEND
  5
A00
  8
BGTBAS-0
  0
POLYLINE
  5
136
  8
BGTBAS-0
 66
     1
 10
0.0
 20
0.0
 30
0.0
 70
   128
  0
VERTEX
  5
411
  8
BGTBAS-0
 10
720.9629625528
 20
955.6655419918
 30
0.0
  0
VERTEX
  5
412
  8
BGTBAS-0
 10
722.0546436146
 20
956.3640305128
 30
0.0
  0
VERTEX
  5
413
  8
BGTBAS-0
 10
723.5265981643
 20
954.8279438841
 30
0.0
  0
VERTEX
  5
414
  8
BGTBAS-0
 10
724.9985527139
 20
950.8429951658
 30
0.0
  0
VERTEX
  5
415
  8
BGTBAS-0
 10
726.5265981643
 20
944.4126644853
 30
0.0
  0
VERTEX
  5
416
  8
BGTBAS-0
 10
728.0546436146
 20
935.7316859768
 30
0.0
  0
VERTEX
  5
417
  8
BGTBAS-0
 10
729.5265981643
 20
925.1600255924
 30
0.0
  0
VERTEX
  5
418
  8
BGTBAS-0
 10
730.9985527139
 20
912.8610039304
 30
0.0
  0
VERTEX
  5
419
  8
BGTBAS-0
 10
731.9677602781
 20
904.1704726949
 30
0.0
  0
VERTEX
  5
41A
  8
BGTBAS-0
 10
732.9454283662
 20
894.9480602024
 30
0.0
  0
SEQEND
  5
A01
  8
BGTBAS-0
  0
ARC
  5
137
  8
BGTBAS-0
 10
843.6698750117
 20
860.100247106
 30
0.0
 40
116.0787369096895
 50
162.5298788349
 51
169.6717185279
  0
POLYLINE
  5
138
  8
BGTBAS-0
 66
     1
 10
0.0
 20
0.0
 30
0.0
 70
   128
  0
VERTEX
  5
41B
  8
BGTBAS-0
 10
440.7973962788
 20
813.3147336746
 30
0.0
  0
VERTEX
  5
41C
  8
BGTBAS-0
 10
442.066012292
 20
800.9829180069
 30
0.0
  0
VERTEX
  5
41D
  8
BGTBAS-0
 10
443.3755977616
 20
789.5186134928
 30
0.0
  0
VERTEX
  5
41E
  8
BGTBAS-0
 10
444.7178569242
 20
779.1936778779
 30
0.0
  0
VERTEX
  5
41F
  8
BGTBAS-0
 10
446.0546436146
 20
770.3158100942
 30
0.0
  0
VERTEX
  5
420
  8
BGTBAS-0
 10
447.5265981643
 20
762.2295900847
 30
0.0
  0
VERTEX
  5
421
  8
BGTBAS-0
 10
448.9985527139
 20
756.3783508923
 30
0.0
  0
VERTEX
  5
422
  8
BGTBAS-0
 10
450.5265981643
 20
752.8764502032
 30
0.0
  0
VERTEX
  5
423
  8
BGTBAS-0
 10
451.8767088885
 20
752.0126110511
 30
0.0
  0
SEQEND
  5
A02
  8
BGTBAS-0
  0
POLYLINE
  5
139
  8
BGTBAS-0
 66
     1
 10
0.0
 20
0.0
 30
0.0
 70
   128
  0
VERTEX
  5
424
  8
BGTBAS-0
 10
434.7816460462
 20
827.3510282995
 30
0.0
  0
VERTEX
  5
425
  8
BGTBAS-0
 10
436.4044653194
 20
811.841674719
 30
0.0
  0
VERTEX
  5
426
  8
BGTBAS-0
 10
437.9894362519
 20
797.662310948
 30
0.0
  0
VERTEX
  5
427
  8
BGTBAS-0
 10
439.6441360493
 20
784.9262387341
 30
0.0
  0
VERTEX
  5
428
  8
BGTBAS-0
 10
441.3046436146
 20
774.2094437129
 30
0.0
  0
VERTEX
  5
429
  8
BGTBAS-0
 10
442.7765981643
 20
766.4988671757
 30
0.0
  0
VERTEX
  5
42A
  8
BGTBAS-0
 10
444.2485527139
 20
760.9194459409
 30
0.0
  0
VERTEX
  5
42B
  8
BGTBAS-0
 10
445.7765981643
 20
757.5802252349
 30
0.0
  0
VERTEX
  5
42C
  8
BGTBAS-0
 10
446.1714345909
 20
757.3393334394
 30
0.0
  0
SEQEND
  5
A03
  8
BGTBAS-0
  0
ARC
  5
13A
  8
BGTBAS-0
 10
583.6108154423
 20
882.8297168932
 30
0.0
 40
158.8332634716423
 50
200.4438197994
 51
205.9546818551
  0
POLYLINE
  5
13B
  8
BGTBAS-0
 66
     1
 10
0.0
 20
0.0
 30
0.0
 70
   128
  0
VERTEX
  5
42D
  8
BGTBAS-0
 10
800.7973962788
 20
813.3147336746
 30
0.0
  0
VERTEX
  5
42E
  8
BGTBAS-0
 10
802.066012292
 20
800.9829180069
 30
0.0
  0
VERTEX
  5
42F
  8
BGTBAS-0
 10
803.3755977616
 20
789.5186134928
 30
0.0
  0
VERTEX
  5
430
  8
BGTBAS-0
 10
804.7178569242
 20
779.1936778779
 30
0.0
  0
VERTEX
  5
431
  8
BGTBAS-0
 10
806.0546436146
 20
770.3158100942
 30
0.0
  0
VERTEX
  5
432
  8
BGTBAS-0
 10
807.5265981643
 20
762.2295900847
 30
0.0
  0
VERTEX
  5
433
  8
BGTBAS-0
 10
808.9985527139
 20
756.3783508923
 30
0.0
  0
VERTEX
  5
434
  8
BGTBAS-0
 10
810.5265981643
 20
752.8764502032
 30
0.0
  0
VERTEX
  5
435
  8
BGTBAS-0
 10
811.8767088885
 20
752.0126110511
 30
0.0
  0
SEQEND
  5
A04
  8
BGTBAS-0
  0
POLYLINE
  5
13C
  8
BGTBAS-0
 66
     1
 10
0.0
 20
0.0
 30
0.0
 70
   128
  0
VERTEX
  5
436
  8
BGTBAS-0
 10
794.7816448069
 20
827.3510403315
 30
0.0
  0
VERTEX
  5
437
  8
BGTBAS-0
 10
796.4044644342
 20
811.8416830397
 30
0.0
  0
VERTEX
  5
438
  8
BGTBAS-0
 10
797.9894356432
 20
797.6623160185
 30
0.0
  0
VERTEX
  5
439
  8
BGTBAS-0
 10
799.644135737
 20
784.9262409436
 30
0.0
  0
VERTEX
  5
43A
  8
BGTBAS-0
 10
801.3046436146
 20
774.2094437129
 30
0.0
  0
VERTEX
  5
43B
  8
BGTBAS-0
 10
802.7765981643
 20
766.4988671757
 30
0.0
  0
VERTEX
  5
43C
  8
BGTBAS-0
 10
804.2485527139
 20
760.9194459409
 30
0.0
  0
VERTEX
  5
43D
  8
BGTBAS-0
 10
805.7765981643
 20
757.5802252349
 30
0.0
  0
VERTEX
  5
43E
  8
BGTBAS-0
 10
806.1714345908
 20
757.3393334395
 30
0.0
  0
SEQEND
  5
A05
  8
BGTBAS-0
  0
ARC
  5
13D
  8
BGTBAS-0
 10
943.6108154422
 20
882.8297168932
 30
0.0
 40
158.8332634715205
 50
200.4438197994
 51
205.9546818551
  0
POLYLINE
  5
13E
  8
BGTBAS-0
 66
     1
 10
0.0
 20
0.0
 30
0.0
 70
   128
  0
VERTEX
  5
43F
  8
BGTBAS-0
 10
260.7973962788
 20
813.3147336746
 30
0.0
  0
VERTEX
  5
440
  8
BGTBAS-0
 10
262.066012292
 20
800.9829180069
 30
0.0
  0
VERTEX
  5
441
  8
BGTBAS-0
 10
263.3755977616
 20
789.5186134928
 30
0.0
  0
VERTEX
  5
442
  8
BGTBAS-0
 10
264.7178569242
 20
779.1936778779
 30
0.0
  0
VERTEX
  5
443
  8
BGTBAS-0
 10
266.0546436146
 20
770.3158100942
 30
0.0
  0
VERTEX
  5
444
  8
BGTBAS-0
 10
267.5265981643
 20
762.2295900847
 30
0.0
  0
VERTEX
  5
445
  8
BGTBAS-0
 10
268.9985527139
 20
756.3783508923
 30
0.0
  0
VERTEX
  5
446
  8
BGTBAS-0
 10
270.5265981643
 20
752.8764502032
 30
0.0
  0
VERTEX
  5
447
  8
BGTBAS-0
 10
271.8767088885
 20
752.0126110511
 30
0.0
  0
SEQEND
  5
A06
  8
BGTBAS-0
  0
POLYLINE
  5
13F
  8
BGTBAS-0
 66
     1
 10
0.0
 20
0.0
 30
0.0
 70
   128
  0
VERTEX
  5
448
  8
BGTBAS-0
 10
254.7816556349
 20
827.3509352034
 30
0.0
  0
VERTEX
  5
449
  8
BGTBAS-0
 10
256.4044721683
 20
811.8416103386
 30
0.0
  0
VERTEX
  5
44A
  8
BGTBAS-0
 10
257.9894409619
 20
797.6622717157
 30
0.0
  0
VERTEX
  5
44B
  8
BGTBAS-0
 10
259.6441384656
 20
784.9262216389
 30
0.0
  0
VERTEX
  5
44C
  8
BGTBAS-0
 10
261.3046436146
 20
774.2094437129
 30
0.0
  0
VERTEX
  5
44D
  8
BGTBAS-0
 10
262.7765981643
 20
766.4988671757
 30
0.0
  0
VERTEX
  5
44E
  8
BGTBAS-0
 10
264.2485527139
 20
760.9194459409
 30
0.0
  0
VERTEX
  5
44F
  8
BGTBAS-0
 10
265.7765981643
 20
757.5802252349
 30
0.0
  0
VERTEX
  5
450
  8
BGTBAS-0
 10
266.1714345906
 20
757.3393334396
 30
0.0
  0
SEQEND
  5
A07
  8
BGTBAS-0
  0
ARC
  5
140
  8
BGTBAS-0
 10
403.6108154423
 20
882.8297168932
 30
0.0
 40
158.8332634716419
 50
200.4438197994
 51
205.9546818551
  0
POLYLINE
  5
141
  8
BGTBAS-0
 66
     1
 10
0.0
 20
0.0
 30
0.0
 70
   128
  0
VERTEX
  5
451
  8
BGTBAS-0
 10
1017.1267088885
 20
951.506278347
 30
0.0
  0
VERTEX
  5
452
  8
BGTBAS-0
 10
1017.3046436146
 20
951.614837266
 30
0.0
  0
VERTEX
  5
453
  8
BGTBAS-0
 10
1018.7765981643
 20
950.1501091849
 30
0.0
  0
VERTEX
  5
454
  8
BGTBAS-0
 10
1020.2485527139
 20
946.3502803337
 30
0.0
  0
VERTEX
  5
455
  8
BGTBAS-0
 10
1021.7765981643
 20
940.2186691714
 30
0.0
  0
VERTEX
  5
456
  8
BGTBAS-0
 10
1023.3046436146
 20
931.9409635031
 30
0.0
  0
VERTEX
  5
457
  8
BGTBAS-0
 10
1024.7765981643
 20
921.8604071464
 30
0.0
  0
VERTEX
  5
458
  8
BGTBAS-0
 10
1026.2485527139
 20
910.1327336789
 30
0.0
  0
VERTEX
  5
459
  8
BGTBAS-0
 10
1027.8620311372
 20
896.0995294265
 30
0.0
  0
VERTEX
  5
45A
  8
BGTBAS-0
 10
1029.4719691583
 20
880.9120686893
 30
0.0
  0
SEQEND
  5
A08
  8
BGTBAS-0
  0
POLYLINE
  5
142
  8
BGTBAS-0
 66
     1
 10
0.0
 20
0.0
 30
0.0
 70
   128
  0
VERTEX
  5
45B
  8
BGTBAS-0
 10
1020.9629623332
 20
955.6655418513
 30
0.0
  0
VERTEX
  5
45C
  8
BGTBAS-0
 10
1022.0546436146
 20
956.3640305128
 30
0.0
  0
VERTEX
  5
45D
  8
BGTBAS-0
 10
1023.5265981643
 20
954.8279438841
 30
0.0
  0
VERTEX
  5
45E
  8
BGTBAS-0
 10
1024.9985527139
 20
950.8429951658
 30
0.0
  0
VERTEX
  5
45F
  8
BGTBAS-0
 10
1026.5265981643
 20
944.4126644853
 30
0.0
  0
VERTEX
  5
460
  8
BGTBAS-0
 10
1028.0546436146
 20
935.7316859768
 30
0.0
  0
VERTEX
  5
461
  8
BGTBAS-0
 10
1029.5265981643
 20
925.1600255924
 30
0.0
  0
VERTEX
  5
462
  8
BGTBAS-0
 10
1030.9985527139
 20
912.8610039304
 30
0.0
  0
VERTEX
  5
463
  8
BGTBAS-0
 10
1031.9677602781
 20
904.1704726949
 30
0.0
  0
VERTEX
  5
464
  8
BGTBAS-0
 10
1032.9454283662
 20
894.9480602024
 30
0.0
  0
SEQEND
  5
A09
  8
BGTBAS-0
  0
ARC
  5
143
  8
BGTBAS-0
 10
1143.6698750117
 20
860.100247106
 30
0.0
 40
116.0787369096369
 50
162.5298788349
 51
169.6717185279
  0
POLYLINE
  5
144
  8
BGTBAS-0
 66
     1
 10
0.0
 20
0.0
 30
0.0
 70
   128
  0
VERTEX
  5
465
  8
BGTBAS-0
 10
500.7973962788
 20
813.3147336746
 30
0.0
  0
VERTEX
  5
466
  8
BGTBAS-0
 10
502.066012292
 20
800.9829180069
 30
0.0
  0
VERTEX
  5
467
  8
BGTBAS-0
 10
503.3755977616
 20
789.5186134928
 30
0.0
  0
VERTEX
  5
468
  8
BGTBAS-0
 10
504.7178569242
 20
779.1936778779
 30
0.0
  0
VERTEX
  5
469
  8
BGTBAS-0
 10
506.0546436146
 20
770.3158100942
 30
0.0
  0
VERTEX
  5
46A
  8
BGTBAS-0
 10
507.5265981643
 20
762.2295900847
 30
0.0
  0
VERTEX
  5
46B
  8
BGTBAS-0
 10
508.9985527139
 20
756.3783508923
 30
0.0
  0
VERTEX
  5
46C
  8
BGTBAS-0
 10
510.5265981643
 20
752.8764502032
 30
0.0
  0
VERTEX
  5
46D
  8
BGTBAS-0
 10
511.8767088885
 20
752.0126110511
 30
0.0
  0
SEQEND
  5
A0A
  8
BGTBAS-0
  0
POLYLINE
  5
145
  8
BGTBAS-0
 66
     1
 10
0.0
 20
0.0
 30
0.0
 70
   128
  0
VERTEX
  5
46E
  8
BGTBAS-0
 10
494.7816448069
 20
827.3510403315
 30
0.0
  0
VERTEX
  5
46F
  8
BGTBAS-0
 10
496.4044644342
 20
811.8416830397
 30
0.0
  0
VERTEX
  5
470
  8
BGTBAS-0
 10
497.9894356432
 20
797.6623160185
 30
0.0
  0
VERTEX
  5
471
  8
BGTBAS-0
 10
499.644135737
 20
784.9262409436
 30
0.0
  0
VERTEX
  5
472
  8
BGTBAS-0
 10
501.3046436146
 20
774.2094437129
 30
0.0
  0
VERTEX
  5
473
  8
BGTBAS-0
 10
502.7765981643
 20
766.4988671757
 30
0.0
  0
VERTEX
  5
474
  8
BGTBAS-0
 10
504.2485527139
 20
760.9194459409
 30
0.0
  0
VERTEX
  5
475
  8
BGTBAS-0
 10
505.7765981643
 20
757.5802252349
 30
0.0
  0
VERTEX
  5
476
  8
BGTBAS-0
 10
506.1714345907
 20
757.3393334395
 30
0.0
  0
SEQEND
  5
A0B
  8
BGTBAS-0
  0
ARC
  5
146
  8
BGTBAS-0
 10
643.6108154423
 20
882.8297168932
 30
0.0
 40
158.8332634716114
 50
200.4438197994
 51
205.9546818551
  0
POLYLINE
  5
147
  8
BGTBAS-0
 66
     1
 10
0.0
 20
0.0
 30
0.0
 70
   128
  0
VERTEX
  5
477
  8
BGTBAS-0
 10
1160.7973962788
 20
813.3147336746
 30
0.0
  0
VERTEX
  5
478
  8
BGTBAS-0
 10
1162.066012292
 20
800.9829180069
 30
0.0
  0
VERTEX
  5
479
  8
BGTBAS-0
 10
1163.3755977616
 20
789.5186134928
 30
0.0
  0
VERTEX
  5
47A
  8
BGTBAS-0
 10
1164.7178569242
 20
779.1936778779
 30
0.0
  0
VERTEX
  5
47B
  8
BGTBAS-0
 10
1166.0546436146
 20
770.3158100942
 30
0.0
  0
VERTEX
  5
47C
  8
BGTBAS-0
 10
1167.5265981643
 20
762.2295900847
 30
0.0
  0
VERTEX
  5
47D
  8
BGTBAS-0
 10
1168.9985527139
 20
756.3783508923
 30
0.0
  0
VERTEX
  5
47E
  8
BGTBAS-0
 10
1170.5265981643
 20
752.8764502032
 30
0.0
  0
VERTEX
  5
47F
  8
BGTBAS-0
 10
1171.8767088885
 20
752.0126110511
 30
0.0
  0
SEQEND
  5
A0C
  8
BGTBAS-0
  0
POLYLINE
  5
148
  8
BGTBAS-0
 66
     1
 10
0.0
 20
0.0
 30
0.0
 70
   128
  0
VERTEX
  5
480
  8
BGTBAS-0
 10
1154.7816410012
 20
827.3510772812
 30
0.0
  0
VERTEX
  5
481
  8
BGTBAS-0
 10
1156.4044617159
 20
811.8417085923
 30
0.0
  0
VERTEX
  5
482
  8
BGTBAS-0
 10
1157.9894337738
 20
797.6623315897
 30
0.0
  0
VERTEX
  5
483
  8
BGTBAS-0
 10
1159.644134778
 20
784.9262477287
 30
0.0
  0
VERTEX
  5
484
  8
BGTBAS-0
 10
1161.3046436146
 20
774.2094437129
 30
0.0
  0
VERTEX
  5
485
  8
BGTBAS-0
 10
1162.7765981643
 20
766.4988671757
 30
0.0
  0
VERTEX
  5
486
  8
BGTBAS-0
 10
1164.2485527139
 20
760.9194459409
 30
0.0
  0
VERTEX
  5
487
  8
BGTBAS-0
 10
1165.7765981643
 20
757.5802252349
 30
0.0
  0
VERTEX
  5
488
  8
BGTBAS-0
 10
1166.1714346251
 20
757.3393334186
 30
0.0
  0
SEQEND
  5
A0D
  8
BGTBAS-0
  0
ARC
  5
149
  8
BGTBAS-0
 10
1303.610815442
 20
882.8297168931
 30
0.0
 40
158.8332634713083
 50
200.4438197994
 51
205.9546818551
  0
POLYLINE
  5
14A
  8
BGTBAS-0
 66
     1
 10
0.0
 20
0.0
 30
0.0
 70
   128
  0
VERTEX
  5
489
  8
BGTBAS-0
 10
1340.7973962788
 20
813.3147336746
 30
0.0
  0
VERTEX
  5
48A
  8
BGTBAS-0
 10
1342.066012292
 20
800.9829180069
 30
0.0
  0
VERTEX
  5
48B
  8
BGTBAS-0
 10
1343.3755977616
 20
789.5186134928
 30
0.0
  0
VERTEX
  5
48C
  8
BGTBAS-0
 10
1344.7178569242
 20
779.1936778779
 30
0.0
  0
VERTEX
  5
48D
  8
BGTBAS-0
 10
1346.0546436146
 20
770.3158100942
 30
0.0
  0
VERTEX
  5
48E
  8
BGTBAS-0
 10
1347.5265981643
 20
762.2295900847
 30
0.0
  0
VERTEX
  5
48F
  8
BGTBAS-0
 10
1348.9985527139
 20
756.3783508923
 30
0.0
  0
VERTEX
  5
490
  8
BGTBAS-0
 10
1350.5265981643
 20
752.8764502032
 30
0.0
  0
VERTEX
  5
491
  8
BGTBAS-0
 10
1351.8767088885
 20
752.0126110511
 30
0.0
  0
SEQEND
  5
A0E
  8
BGTBAS-0
  0
POLYLINE
  5
14B
  8
BGTBAS-0
 66
     1
 10
0.0
 20
0.0
 30
0.0
 70
   128
  0
VERTEX
  5
492
  8
BGTBAS-0
 10
1334.7816428621
 20
827.3510592141
 30
0.0
  0
VERTEX
  5
493
  8
BGTBAS-0
 10
1336.4044630451
 20
811.841696098
 30
0.0
  0
VERTEX
  5
494
  8
BGTBAS-0
 10
1337.9894346878
 20
797.6623239759
 30
0.0
  0
VERTEX
  5
495
  8
BGTBAS-0
 10
1339.6441352469
 20
784.926244411
 30
0.0
  0
VERTEX
  5
496
  8
BGTBAS-0
 10
1341.3046436146
 20
774.2094437129
 30
0.0
  0
VERTEX
  5
497
  8
BGTBAS-0
 10
1342.7765981643
 20
766.4988671757
 30
0.0
  0
VERTEX
  5
498
  8
BGTBAS-0
 10
1344.2485527139
 20
760.9194459409
 30
0.0
  0
VERTEX
  5
499
  8
BGTBAS-0
 10
1345.7765981643
 20
757.5802252349
 30
0.0
  0
VERTEX
  5
49A
  8
BGTBAS-0
 10
1346.1714346084
 20
757.3393334288
 30
0.0
  0
SEQEND
  5
A0F
  8
BGTBAS-0
  0
ARC
  5
14C
  8
BGTBAS-0
 10
1483.6108154421
 20
882.8297168931
 30
0.0
 40
158.8332634714366
 50
200.4438197994
 51
205.9546818551
  0
POLYLINE
  5
14D
  8
BGTBAS-0
 66
     1
 10
0.0
 20
0.0
 30
0.0
 70
   128
  0
VERTEX
  5
49B
  8
BGTBAS-0
 10
1280.7973962788
 20
813.3147336746
 30
0.0
  0
VERTEX
  5
49C
  8
BGTBAS-0
 10
1282.066012292
 20
800.9829180069
 30
0.0
  0
VERTEX
  5
49D
  8
BGTBAS-0
 10
1283.3755977616
 20
789.5186134928
 30
0.0
  0
VERTEX
  5
49E
  8
BGTBAS-0
 10
1284.7178569242
 20
779.1936778779
 30
0.0
  0
VERTEX
  5
49F
  8
BGTBAS-0
 10
1286.0546436146
 20
770.3158100942
 30
0.0
  0
VERTEX
  5
4A0
  8
BGTBAS-0
 10
1287.5265981643
 20
762.2295900847
 30
0.0
  0
VERTEX
  5
4A1
  8
BGTBAS-0
 10
1288.9985527139
 20
756.3783508923
 30
0.0
  0
VERTEX
  5
4A2
  8
BGTBAS-0
 10
1290.5265981643
 20
752.8764502032
 30
0.0
  0
VERTEX
  5
4A3
  8
BGTBAS-0
 10
1291.8767088885
 20
752.0126110511
 30
0.0
  0
SEQEND
  5
A10
  8
BGTBAS-0
  0
POLYLINE
  5
14E
  8
BGTBAS-0
 66
     1
 10
0.0
 20
0.0
 30
0.0
 70
   128
  0
VERTEX
  5
4A4
  8
BGTBAS-0
 10
1274.7816512247
 20
827.3509780213
 30
0.0
  0
VERTEX
  5
4A5
  8
BGTBAS-0
 10
1276.4044690183
 20
811.8416399492
 30
0.0
  0
VERTEX
  5
4A6
  8
BGTBAS-0
 10
1277.9894387956
 20
797.6622897599
 30
0.0
  0
VERTEX
  5
4A7
  8
BGTBAS-0
 10
1279.6441373543
 20
784.9262295015
 30
0.0
  0
VERTEX
  5
4A8
  8
BGTBAS-0
 10
1281.3046436146
 20
774.2094437129
 30
0.0
  0
VERTEX
  5
4A9
  8
BGTBAS-0
 10
1282.7765981643
 20
766.4988671757
 30
0.0
  0
VERTEX
  5
4AA
  8
BGTBAS-0
 10
1284.2485527139
 20
760.9194459409
 30
0.0
  0
VERTEX
  5
4AB
  8
BGTBAS-0
 10
1285.7765981643
 20
757.5802252349
 30
0.0
  0
VERTEX
  5
4AC
  8
BGTBAS-0
 10
1286.1714345904
 20
757.3393334397
 30
0.0
  0
SEQEND
  5
A11
  8
BGTBAS-0
  0
ARC
  5
14F
  8
BGTBAS-0
 10
1423.610815442
 20
882.8297168931
 30
0.0
 40
158.8332634713349
 50
200.4438197994
 51
205.9546818551
  0
POLYLINE
  5
150
  8
BGTBAS-0
 66
     1
 10
0.0
 20
0.0
 30
0.0
 70
   128
  0
VERTEX
  5
4AD
  8
BGTBAS-0
 10
1220.7973962788
 20
813.3147336746
 30
0.0
  0
VERTEX
  5
4AE
  8
BGTBAS-0
 10
1222.066012292
 20
800.9829180069
 30
0.0
  0
VERTEX
  5
4AF
  8
BGTBAS-0
 10
1223.3755977616
 20
789.5186134928
 30
0.0
  0
VERTEX
  5
4B0
  8
BGTBAS-0
 10
1224.7178569242
 20
779.1936778779
 30
0.0
  0
VERTEX
  5
4B1
  8
BGTBAS-0
 10
1226.0546436146
 20
770.3158100942
 30
0.0
  0
VERTEX
  5
4B2
  8
BGTBAS-0
 10
1227.5265981643
 20
762.2295900847
 30
0.0
  0
VERTEX
  5
4B3
  8
BGTBAS-0
 10
1228.9985527139
 20
756.3783508923
 30
0.0
  0
VERTEX
  5
4B4
  8
BGTBAS-0
 10
1230.5265981643
 20
752.8764502032
 30
0.0
  0
VERTEX
  5
4B5
  8
BGTBAS-0
 10
1231.8767088885
 20
752.0126110511
 30
0.0
  0
SEQEND
  5
A12
  8
BGTBAS-0
  0
POLYLINE
  5
151
  8
BGTBAS-0
 66
     1
 10
0.0
 20
0.0
 30
0.0
 70
   128
  0
VERTEX
  5
4B6
  8
BGTBAS-0
 10
1214.7816448031
 20
827.3510403684
 30
0.0
  0
VERTEX
  5
4B7
  8
BGTBAS-0
 10
1216.4044644315
 20
811.8416830653
 30
0.0
  0
VERTEX
  5
4B8
  8
BGTBAS-0
 10
1217.9894356413
 20
797.6623160341
 30
0.0
  0
VERTEX
  5
4B9
  8
BGTBAS-0
 10
1219.6441357361
 20
784.9262409504
 30
0.0
  0
VERTEX
  5
4BA
  8
BGTBAS-0
 10
1221.3046436146
 20
774.2094437129
 30
0.0
  0
VERTEX
  5
4BB
  8
BGTBAS-0
 10
1222.7765981643
 20
766.4988671757
 30
0.0
  0
VERTEX
  5
4BC
  8
BGTBAS-0
 10
1224.2485527139
 20
760.9194459409
 30
0.0
  0
VERTEX
  5
4BD
  8
BGTBAS-0
 10
1225.7765981643
 20
757.5802252349
 30
0.0
  0
VERTEX
  5
4BE
  8
BGTBAS-0
 10
1226.1714345906
 20
757.3393334396
 30
0.0
  0
SEQEND
  5
A13
  8
BGTBAS-0
  0
ARC
  5
152
  8
BGTBAS-0
 10
1363.6108154421
 20
882.8297168931
 30
0.0
 40
158.833263471446
 50
200.4438197994
 51
205.9546818551
  0
POLYLINE
  5
153
  8
BGTBAS-0
 66
     1
 10
0.0
 20
0.0
 30
0.0
 70
   128
  0
VERTEX
  5
4BF
  8
BGTBAS-0
 10
957.1267088885
 20
951.506278347
 30
0.0
  0
VERTEX
  5
4C0
  8
BGTBAS-0
 10
957.3046436146
 20
951.614837266
 30
0.0
  0
VERTEX
  5
4C1
  8
BGTBAS-0
 10
958.7765981643
 20
950.1501091849
 30
0.0
  0
VERTEX
  5
4C2
  8
BGTBAS-0
 10
960.2485527139
 20
946.3502803337
 30
0.0
  0
VERTEX
  5
4C3
  8
BGTBAS-0
 10
961.7765981643
 20
940.2186691714
 30
0.0
  0
VERTEX
  5
4C4
  8
BGTBAS-0
 10
963.3046436146
 20
931.9409635031
 30
0.0
  0
VERTEX
  5
4C5
  8
BGTBAS-0
 10
964.7765981643
 20
921.8604071464
 30
0.0
  0
VERTEX
  5
4C6
  8
BGTBAS-0
 10
966.2485527139
 20
910.1327336789
 30
0.0
  0
VERTEX
  5
4C7
  8
BGTBAS-0
 10
967.8620355407
 20
896.0994895072
 30
0.0
  0
VERTEX
  5
4C8
  8
BGTBAS-0
 10
969.4719777638
 20
880.9119842911
 30
0.0
  0
SEQEND
  5
A14
  8
BGTBAS-0
  0
POLYLINE
  5
154
  8
BGTBAS-0
 66
     1
 10
0.0
 20
0.0
 30
0.0
 70
   128
  0
VERTEX
  5
4C9
  8
BGTBAS-0
 10
960.9629625012
 20
955.6655419588
 30
0.0
  0
VERTEX
  5
4CA
  8
BGTBAS-0
 10
962.0546436146
 20
956.3640305128
 30
0.0
  0
VERTEX
  5
4CB
  8
BGTBAS-0
 10
963.5265981643
 20
954.8279438841
 30
0.0
  0
VERTEX
  5
4CC
  8
BGTBAS-0
 10
964.9985527139
 20
950.8429951658
 30
0.0
  0
VERTEX
  5
4CD
  8
BGTBAS-0
 10
966.5265981643
 20
944.4126644853
 30
0.0
  0
VERTEX
  5
4CE
  8
BGTBAS-0
 10
968.0546436146
 20
935.7316859768
 30
0.0
  0
VERTEX
  5
4CF
  8
BGTBAS-0
 10
969.5265981643
 20
925.1600255924
 30
0.0
  0
VERTEX
  5
4D0
  8
BGTBAS-0
 10
970.9985527139
 20
912.8610039304
 30
0.0
  0
VERTEX
  5
4D1
  8
BGTBAS-0
 10
971.9677602781
 20
904.1704726949
 30
0.0
  0
VERTEX
  5
4D2
  8
BGTBAS-0
 10
972.9454283662
 20
894.9480602024
 30
0.0
  0
SEQEND
  5
A15
  8
BGTBAS-0
  0
ARC
  5
155
  8
BGTBAS-0
 10
1083.6698750117
 20
860.100247106
 30
0.0
 40
116.0787369096299
 50
162.5298788349
 51
169.6717185279
  0
POLYLINE
  5
156
  8
BGTBAS-0
 66
     1
 10
0.0
 20
0.0
 30
0.0
 70
   128
  0
VERTEX
  5
4D3
  8
BGTBAS-0
 10
417.1267088885
 20
951.506278347
 30
0.0
  0
VERTEX
  5
4D4
  8
BGTBAS-0
 10
417.3046436146
 20
951.614837266
 30
0.0
  0
VERTEX
  5
4D5
  8
BGTBAS-0
 10
418.7765981643
 20
950.1501091849
 30
0.0
  0
VERTEX
  5
4D6
  8
BGTBAS-0
 10
420.2485527139
 20
946.3502803337
 30
0.0
  0
VERTEX
  5
4D7
  8
BGTBAS-0
 10
421.7765981643
 20
940.2186691714
 30
0.0
  0
VERTEX
  5
4D8
  8
BGTBAS-0
 10
423.3046436146
 20
931.9409635031
 30
0.0
  0
VERTEX
  5
4D9
  8
BGTBAS-0
 10
424.7765981643
 20
921.8604071464
 30
0.0
  0
VERTEX
  5
4DA
  8
BGTBAS-0
 10
426.2485527139
 20
910.1327336789
 30
0.0
  0
VERTEX
  5
4DB
  8
BGTBAS-0
 10
427.8620468535
 20
896.0993869521
 30
0.0
  0
VERTEX
  5
4DC
  8
BGTBAS-0
 10
429.4719998719
 20
880.9117674665
 30
0.0
  0
SEQEND
  5
A16
  8
BGTBAS-0
  0
POLYLINE
  5
157
  8
BGTBAS-0
 66
     1
 10
0.0
 20
0.0
 30
0.0
 70
   128
  0
VERTEX
  5
4DD
  8
BGTBAS-0
 10
420.9629624969
 20
955.6655419561
 30
0.0
  0
VERTEX
  5
4DE
  8
BGTBAS-0
 10
422.0546436146
 20
956.3640305128
 30
0.0
  0
VERTEX
  5
4DF
  8
BGTBAS-0
 10
423.5265981643
 20
954.8279438841
 30
0.0
  0
VERTEX
  5
4E0
  8
BGTBAS-0
 10
424.9985527139
 20
950.8429951658
 30
0.0
  0
VERTEX
  5
4E1
  8
BGTBAS-0
 10
426.5265981643
 20
944.4126644853
 30
0.0
  0
VERTEX
  5
4E2
  8
BGTBAS-0
 10
428.0546436146
 20
935.7316859768
 30
0.0
  0
VERTEX
  5
4E3
  8
BGTBAS-0
 10
429.5265981643
 20
925.1600255924
 30
0.0
  0
VERTEX
  5
4E4
  8
BGTBAS-0
 10
430.9985527139
 20
912.8610039304
 30
0.0
  0
VERTEX
  5
4E5
  8
BGTBAS-0
 10
431.9677602781
 20
904.1704726949
 30
0.0
  0
VERTEX
  5
4E6
  8
BGTBAS-0
 10
432.9454283662
 20
894.9480602024
 30
0.0
  0
SEQEND
  5
A17
  8
BGTBAS-0
  0
ARC
  5
158
  8
BGTBAS-0
 10
543.6698750117
 20
860.100247106
 30
0.0
 40
116.0787369097007
 50
162.5298788349
 51
169.6717185279
  0
POLYLINE
  5
159
  8
BGTBAS-0
 66
     1
 10
0.0
 20
0.0
 30
0.0
 70
   128
  0
VERTEX
  5
4E7
  8
BGTBAS-0
 10
980.7973962788
 20
813.3147336746
 30
0.0
  0
VERTEX
  5
4E8
  8
BGTBAS-0
 10
982.066012292
 20
800.9829180069
 30
0.0
  0
VERTEX
  5
4E9
  8
BGTBAS-0
 10
983.3755977616
 20
789.5186134928
 30
0.0
  0
VERTEX
  5
4EA
  8
BGTBAS-0
 10
984.7178569242
 20
779.1936778779
 30
0.0
  0
VERTEX
  5
4EB
  8
BGTBAS-0
 10
986.0546436146
 20
770.3158100942
 30
0.0
  0
VERTEX
  5
4EC
  8
BGTBAS-0
 10
987.5265981643
 20
762.2295900847
 30
0.0
  0
VERTEX
  5
4ED
  8
BGTBAS-0
 10
988.9985527139
 20
756.3783508923
 30
0.0
  0
VERTEX
  5
4EE
  8
BGTBAS-0
 10
990.5265981643
 20
752.8764502032
 30
0.0
  0
VERTEX
  5
4EF
  8
BGTBAS-0
 10
991.8767088885
 20
752.0126110511
 30
0.0
  0
SEQEND
  5
A18
  8
BGTBAS-0
  0
POLYLINE
  5
15A
  8
BGTBAS-0
 66
     1
 10
0.0
 20
0.0
 30
0.0
 70
   128
  0
VERTEX
  5
4F0
  8
BGTBAS-0
 10
974.7816462781
 20
827.3510260479
 30
0.0
  0
VERTEX
  5
4F1
  8
BGTBAS-0
 10
976.4044654851
 20
811.841673162
 30
0.0
  0
VERTEX
  5
4F2
  8
BGTBAS-0
 10
977.9894363658
 20
797.6623099991
 30
0.0
  0
VERTEX
  5
4F3
  8
BGTBAS-0
 10
979.6441361078
 20
784.9262383207
 30
0.0
  0
VERTEX
  5
4F4
  8
BGTBAS-0
 10
981.3046436146
 20
774.2094437129
 30
0.0
  0
VERTEX
  5
4F5
  8
BGTBAS-0
 10
982.7765981643
 20
766.4988671757
 30
0.0
  0
VERTEX
  5
4F6
  8
BGTBAS-0
 10
984.2485527139
 20
760.9194459409
 30
0.0
  0
VERTEX
  5
4F7
  8
BGTBAS-0
 10
985.7765981643
 20
757.5802252349
 30
0.0
  0
VERTEX
  5
4F8
  8
BGTBAS-0
 10
986.1714345904
 20
757.3393334397
 30
0.0
  0
SEQEND
  5
A19
  8
BGTBAS-0
  0
ARC
  5
15B
  8
BGTBAS-0
 10
1123.610815442
 20
882.8297168931
 30
0.0
 40
158.8332634712799
 50
200.4438197994
 51
205.9546818551
  0
POLYLINE
  5
15C
  8
BGTBAS-0
 66
     1
 10
0.0
 20
0.0
 30
0.0
 70
   128
  0
VERTEX
  5
4F9
  8
BGTBAS-0
 10
380.7973962788
 20
813.3147336746
 30
0.0
  0
VERTEX
  5
4FA
  8
BGTBAS-0
 10
382.066012292
 20
800.9829180069
 30
0.0
  0
VERTEX
  5
4FB
  8
BGTBAS-0
 10
383.3755977616
 20
789.5186134928
 30
0.0
  0
VERTEX
  5
4FC
  8
BGTBAS-0
 10
384.7178569242
 20
779.1936778779
 30
0.0
  0
VERTEX
  5
4FD
  8
BGTBAS-0
 10
386.0546436146
 20
770.3158100942
 30
0.0
  0
VERTEX
  5
4FE
  8
BGTBAS-0
 10
387.5265981643
 20
762.2295900847
 30
0.0
  0
VERTEX
  5
4FF
  8
BGTBAS-0
 10
388.9985527139
 20
756.3783508923
 30
0.0
  0
VERTEX
  5
500
  8
BGTBAS-0
 10
390.5265981643
 20
752.8764502032
 30
0.0
  0
VERTEX
  5
501
  8
BGTBAS-0
 10
391.8767088885
 20
752.0126110511
 30
0.0
  0
SEQEND
  5
A1A
  8
BGTBAS-0
  0
POLYLINE
  5
15D
  8
BGTBAS-0
 66
     1
 10
0.0
 20
0.0
 30
0.0
 70
   128
  0
VERTEX
  5
502
  8
BGTBAS-0
 10
374.7816448069
 20
827.3510403315
 30
0.0
  0
VERTEX
  5
503
  8
BGTBAS-0
 10
376.4044644342
 20
811.8416830397
 30
0.0
  0
VERTEX
  5
504
  8
BGTBAS-0
 10
377.9894356432
 20
797.6623160185
 30
0.0
  0
VERTEX
  5
505
  8
BGTBAS-0
 10
379.644135737
 20
784.9262409436
 30
0.0
  0
VERTEX
  5
506
  8
BGTBAS-0
 10
381.3046436146
 20
774.2094437129
 30
0.0
  0
VERTEX
  5
507
  8
BGTBAS-0
 10
382.7765981643
 20
766.4988671757
 30
0.0
  0
VERTEX
  5
508
  8
BGTBAS-0
 10
384.2485527139
 20
760.9194459409
 30
0.0
  0
VERTEX
  5
509
  8
BGTBAS-0
 10
385.7765981643
 20
757.5802252349
 30
0.0
  0
VERTEX
  5
50A
  8
BGTBAS-0
 10
386.1714345904
 20
757.3393334397
 30
0.0
  0
SEQEND
  5
A1B
  8
BGTBAS-0
  0
ARC
  5
15E
  8
BGTBAS-0
 10
523.6108154424
 20
882.8297168932
 30
0.0
 40
158.8332634717518
 50
200.4438197994
 51
205.9546818551
  0
POLYLINE
  5
15F
  8
BGTBAS-0
 66
     1
 10
0.0
 20
0.0
 30
0.0
 70
   128
  0
VERTEX
  5
50B
  8
BGTBAS-0
 10
620.7973962788
 20
813.3147336746
 30
0.0
  0
VERTEX
  5
50C
  8
BGTBAS-0
 10
622.066012292
 20
800.9829180069
 30
0.0
  0
VERTEX
  5
50D
  8
BGTBAS-0
 10
623.3755977616
 20
789.5186134928
 30
0.0
  0
VERTEX
  5
50E
  8
BGTBAS-0
 10
624.7178569242
 20
779.1936778779
 30
0.0
  0
VERTEX
  5
50F
  8
BGTBAS-0
 10
626.0546436146
 20
770.3158100942
 30
0.0
  0
VERTEX
  5
510
  8
BGTBAS-0
 10
627.5265981643
 20
762.2295900847
 30
0.0
  0
VERTEX
  5
511
  8
BGTBAS-0
 10
628.9985527139
 20
756.3783508923
 30
0.0
  0
VERTEX
  5
512
  8
BGTBAS-0
 10
630.5265981643
 20
752.8764502032
 30
0.0
  0
VERTEX
  5
513
  8
BGTBAS-0
 10
631.8767088885
 20
752.0126110511
 30
0.0
  0
SEQEND
  5
A1C
  8
BGTBAS-0
  0
POLYLINE
  5
160
  8
BGTBAS-0
 66
     1
 10
0.0
 20
0.0
 30
0.0
 70
   128
  0
VERTEX
  5
514
  8
BGTBAS-0
 10
614.7816448069
 20
827.3510403315
 30
0.0
  0
VERTEX
  5
515
  8
BGTBAS-0
 10
616.4044644342
 20
811.8416830397
 30
0.0
  0
VERTEX
  5
516
  8
BGTBAS-0
 10
617.9894356432
 20
797.6623160185
 30
0.0
  0
VERTEX
  5
517
  8
BGTBAS-0
 10
619.644135737
 20
784.9262409436
 30
0.0
  0
VERTEX
  5
518
  8
BGTBAS-0
 10
621.3046436146
 20
774.2094437129
 30
0.0
  0
VERTEX
  5
519
  8
BGTBAS-0
 10
622.7765981643
 20
766.4988671757
 30
0.0
  0
VERTEX
  5
51A
  8
BGTBAS-0
 10
624.2485527139
 20
760.9194459409
 30
0.0
  0
VERTEX
  5
51B
  8
BGTBAS-0
 10
625.7765981643
 20
757.5802252349
 30
0.0
  0
VERTEX
  5
51C
  8
BGTBAS-0
 10
626.1714345904
 20
757.3393334397
 30
0.0
  0
SEQEND
  5
A1D
  8
BGTBAS-0
  0
ARC
  5
161
  8
BGTBAS-0
 10
763.6108154423
 20
882.8297168932
 30
0.0
 40
158.8332634716922
 50
200.4438197994
 51
205.9546818551
  0
POLYLINE
  5
162
  8
BGTBAS-0
 66
     1
 10
0.0
 20
0.0
 30
0.0
 70
   128
  0
VERTEX
  5
51D
  8
BGTBAS-0
 10
1400.7973962788
 20
813.3147336746
 30
0.0
  0
VERTEX
  5
51E
  8
BGTBAS-0
 10
1402.066012292
 20
800.9829180069
 30
0.0
  0
VERTEX
  5
51F
  8
BGTBAS-0
 10
1403.3755977616
 20
789.5186134928
 30
0.0
  0
VERTEX
  5
520
  8
BGTBAS-0
 10
1404.7178569242
 20
779.1936778779
 30
0.0
  0
VERTEX
  5
521
  8
BGTBAS-0
 10
1406.0546436146
 20
770.3158100942
 30
0.0
  0
VERTEX
  5
522
  8
BGTBAS-0
 10
1407.5265981643
 20
762.2295900847
 30
0.0
  0
VERTEX
  5
523
  8
BGTBAS-0
 10
1408.9985527139
 20
756.3783508923
 30
0.0
  0
VERTEX
  5
524
  8
BGTBAS-0
 10
1410.5265981643
 20
752.8764502032
 30
0.0
  0
VERTEX
  5
525
  8
BGTBAS-0
 10
1411.8767088885
 20
752.0126110511
 30
0.0
  0
SEQEND
  5
A1E
  8
BGTBAS-0
  0
POLYLINE
  5
163
  8
BGTBAS-0
 66
     1
 10
0.0
 20
0.0
 30
0.0
 70
   128
  0
VERTEX
  5
526
  8
BGTBAS-0
 10
1394.7816448069
 20
827.3510403315
 30
0.0
  0
VERTEX
  5
527
  8
BGTBAS-0
 10
1396.4044644342
 20
811.8416830397
 30
0.0
  0
VERTEX
  5
528
  8
BGTBAS-0
 10
1397.9894356432
 20
797.6623160185
 30
0.0
  0
VERTEX
  5
529
  8
BGTBAS-0
 10
1399.644135737
 20
784.9262409436
 30
0.0
  0
VERTEX
  5
52A
  8
BGTBAS-0
 10
1401.3046436146
 20
774.2094437129
 30
0.0
  0
VERTEX
  5
52B
  8
BGTBAS-0
 10
1402.7765981643
 20
766.4988671757
 30
0.0
  0
VERTEX
  5
52C
  8
BGTBAS-0
 10
1404.2485527139
 20
760.9194459409
 30
0.0
  0
VERTEX
  5
52D
  8
BGTBAS-0
 10
1405.7765981643
 20
757.5802252349
 30
0.0
  0
VERTEX
  5
52E
  8
BGTBAS-0
 10
1406.1714345905
 20
757.3393334397
 30
0.0
  0
SEQEND
  5
A1F
  8
BGTBAS-0
  0
ARC
  5
164
  8
BGTBAS-0
 10
1543.610815442
 20
882.8297168931
 30
0.0
 40
158.8332634712762
 50
200.4438197994
 51
205.9546818551
  0
POLYLINE
  5
165
  8
BGTBAS-0
 66
     1
 10
0.0
 20
0.0
 30
0.0
 70
   128
  0
VERTEX
  5
52F
  8
BGTBAS-0
 10
1100.7973962788
 20
813.3147336746
 30
0.0
  0
VERTEX
  5
530
  8
BGTBAS-0
 10
1102.066012292
 20
800.9829180069
 30
0.0
  0
VERTEX
  5
531
  8
BGTBAS-0
 10
1103.3755977616
 20
789.5186134928
 30
0.0
  0
VERTEX
  5
532
  8
BGTBAS-0
 10
1104.7178569242
 20
779.1936778779
 30
0.0
  0
VERTEX
  5
533
  8
BGTBAS-0
 10
1106.0546436146
 20
770.3158100942
 30
0.0
  0
VERTEX
  5
534
  8
BGTBAS-0
 10
1107.5265981643
 20
762.2295900847
 30
0.0
  0
VERTEX
  5
535
  8
BGTBAS-0
 10
1108.9985527139
 20
756.3783508923
 30
0.0
  0
VERTEX
  5
536
  8
BGTBAS-0
 10
1110.5265981643
 20
752.8764502032
 30
0.0
  0
VERTEX
  5
537
  8
BGTBAS-0
 10
1111.8767088885
 20
752.0126110511
 30
0.0
  0
SEQEND
  5
A20
  8
BGTBAS-0
  0
POLYLINE
  5
166
  8
BGTBAS-0
 66
     1
 10
0.0
 20
0.0
 30
0.0
 70
   128
  0
VERTEX
  5
538
  8
BGTBAS-0
 10
1094.7816476294
 20
827.3510129286
 30
0.0
  0
VERTEX
  5
539
  8
BGTBAS-0
 10
1096.4044664502
 20
811.8416640893
 30
0.0
  0
VERTEX
  5
53A
  8
BGTBAS-0
 10
1097.9894370296
 20
797.6623044704
 30
0.0
  0
VERTEX
  5
53B
  8
BGTBAS-0
 10
1099.6441364483
 20
784.9262359116
 30
0.0
  0
VERTEX
  5
53C
  8
BGTBAS-0
 10
1101.3046436146
 20
774.2094437129
 30
0.0
  0
VERTEX
  5
53D
  8
BGTBAS-0
 10
1102.7765981643
 20
766.4988671757
 30
0.0
  0
VERTEX
  5
53E
  8
BGTBAS-0
 10
1104.2485527139
 20
760.9194459409
 30
0.0
  0
VERTEX
  5
53F
  8
BGTBAS-0
 10
1105.7765981643
 20
757.5802252349
 30
0.0
  0
VERTEX
  5
540
  8
BGTBAS-0
 10
1106.1714345904
 20
757.3393334397
 30
0.0
  0
SEQEND
  5
A21
  8
BGTBAS-0
  0
ARC
  5
167
  8
BGTBAS-0
 10
1243.6108154419
 20
882.8297168931
 30
0.0
 40
158.8332634712669
 50
200.4438197994
 51
205.9546818551
  0
POLYLINE
  5
168
  8
BGTBAS-0
 66
     1
 10
0.0
 20
0.0
 30
0.0
 70
   128
  0
VERTEX
  5
541
  8
BGTBAS-0
 10
860.7973962788
 20
813.3147336746
 30
0.0
  0
VERTEX
  5
542
  8
BGTBAS-0
 10
862.066012292
 20
800.9829180069
 30
0.0
  0
VERTEX
  5
543
  8
BGTBAS-0
 10
863.3755977616
 20
789.5186134928
 30
0.0
  0
VERTEX
  5
544
  8
BGTBAS-0
 10
864.7178569242
 20
779.1936778779
 30
0.0
  0
VERTEX
  5
545
  8
BGTBAS-0
 10
866.0546436146
 20
770.3158100942
 30
0.0
  0
VERTEX
  5
546
  8
BGTBAS-0
 10
867.5265981643
 20
762.2295900847
 30
0.0
  0
VERTEX
  5
547
  8
BGTBAS-0
 10
868.9985527139
 20
756.3783508923
 30
0.0
  0
VERTEX
  5
548
  8
BGTBAS-0
 10
870.5265981643
 20
752.8764502032
 30
0.0
  0
VERTEX
  5
549
  8
BGTBAS-0
 10
871.8767088885
 20
752.0126110511
 30
0.0
  0
SEQEND
  5
A22
  8
BGTBAS-0
  0
POLYLINE
  5
169
  8
BGTBAS-0
 66
     1
 10
0.0
 20
0.0
 30
0.0
 70
   128
  0
VERTEX
  5
54A
  8
BGTBAS-0
 10
854.7816461017
 20
827.3510277605
 30
0.0
  0
VERTEX
  5
54B
  8
BGTBAS-0
 10
856.4044653591
 20
811.8416743463
 30
0.0
  0
VERTEX
  5
54C
  8
BGTBAS-0
 10
857.9894362792
 20
797.6623107209
 30
0.0
  0
VERTEX
  5
54D
  8
BGTBAS-0
 10
859.6441360633
 20
784.9262386352
 30
0.0
  0
VERTEX
  5
54E
  8
BGTBAS-0
 10
861.3046436146
 20
774.2094437129
 30
0.0
  0
VERTEX
  5
54F
  8
BGTBAS-0
 10
862.7765981643
 20
766.4988671757
 30
0.0
  0
VERTEX
  5
550
  8
BGTBAS-0
 10
864.2485527139
 20
760.9194459409
 30
0.0
  0
VERTEX
  5
551
  8
BGTBAS-0
 10
865.7765981643
 20
757.5802252349
 30
0.0
  0
VERTEX
  5
552
  8
BGTBAS-0
 10
866.1714345904
 20
757.3393334397
 30
0.0
  0
SEQEND
  5
A23
  8
BGTBAS-0
  0
ARC
  5
16A
  8
BGTBAS-0
 10
1003.6108154423
 20
882.8297168932
 30
0.0
 40
158.8332634716596
 50
200.4438197994
 51
205.9546818551
  0
POLYLINE
  5
16B
  8
BGTBAS-0
 66
     1
 10
0.0
 20
0.0
 30
0.0
 70
   128
  0
VERTEX
  5
553
  8
BGTBAS-0
 10
1040.7973962788
 20
813.3147336746
 30
0.0
  0
VERTEX
  5
554
  8
BGTBAS-0
 10
1042.066012292
 20
800.9829180069
 30
0.0
  0
VERTEX
  5
555
  8
BGTBAS-0
 10
1043.3755977616
 20
789.5186134928
 30
0.0
  0
VERTEX
  5
556
  8
BGTBAS-0
 10
1044.7178569242
 20
779.1936778779
 30
0.0
  0
VERTEX
  5
557
  8
BGTBAS-0
 10
1046.0546436146
 20
770.3158100942
 30
0.0
  0
VERTEX
  5
558
  8
BGTBAS-0
 10
1047.5265981643
 20
762.2295900847
 30
0.0
  0
VERTEX
  5
559
  8
BGTBAS-0
 10
1048.9985527139
 20
756.3783508923
 30
0.0
  0
VERTEX
  5
55A
  8
BGTBAS-0
 10
1050.5265981643
 20
752.8764502032
 30
0.0
  0
VERTEX
  5
55B
  8
BGTBAS-0
 10
1051.8767088885
 20
752.0126110511
 30
0.0
  0
SEQEND
  5
A24
  8
BGTBAS-0
  0
POLYLINE
  5
16C
  8
BGTBAS-0
 66
     1
 10
0.0
 20
0.0
 30
0.0
 70
   128
  0
VERTEX
  5
55C
  8
BGTBAS-0
 10
1034.7816448046
 20
827.3510403545
 30
0.0
  0
VERTEX
  5
55D
  8
BGTBAS-0
 10
1036.4044644325
 20
811.8416830556
 30
0.0
  0
VERTEX
  5
55E
  8
BGTBAS-0
 10
1037.989435642
 20
797.6623160282
 30
0.0
  0
VERTEX
  5
55F
  8
BGTBAS-0
 10
1039.6441357364
 20
784.9262409478
 30
0.0
  0
VERTEX
  5
560
  8
BGTBAS-0
 10
1041.3046436146
 20
774.2094437129
 30
0.0
  0
VERTEX
  5
561
  8
BGTBAS-0
 10
1042.7765981643
 20
766.4988671757
 30
0.0
  0
VERTEX
  5
562
  8
BGTBAS-0
 10
1044.2485527139
 20
760.9194459409
 30
0.0
  0
VERTEX
  5
563
  8
BGTBAS-0
 10
1045.7765981643
 20
757.5802252349
 30
0.0
  0
VERTEX
  5
564
  8
BGTBAS-0
 10
1046.1714345904
 20
757.3393334397
 30
0.0
  0
SEQEND
  5
A25
  8
BGTBAS-0
  0
ARC
  5
16D
  8
BGTBAS-0
 10
1183.610815442
 20
882.8297168931
 30
0.0
 40
158.8332634713087
 50
200.4438197994
 51
205.9546818551
  0
POLYLINE
  5
16E
  8
BGTBAS-0
 66
     1
 10
0.0
 20
0.0
 30
0.0
 70
   128
  0
VERTEX
  5
565
  8
BGTBAS-0
 10
1137.1267088885
 20
951.506278347
 30
0.0
  0
VERTEX
  5
566
  8
BGTBAS-0
 10
1137.3046436146
 20
951.614837266
 30
0.0
  0
VERTEX
  5
567
  8
BGTBAS-0
 10
1138.7765981643
 20
950.1501091849
 30
0.0
  0
VERTEX
  5
568
  8
BGTBAS-0
 10
1140.2485527139
 20
946.3502803337
 30
0.0
  0
VERTEX
  5
569
  8
BGTBAS-0
 10
1141.7765981643
 20
940.2186691714
 30
0.0
  0
VERTEX
  5
56A
  8
BGTBAS-0
 10
1143.3046436146
 20
931.9409635031
 30
0.0
  0
VERTEX
  5
56B
  8
BGTBAS-0
 10
1144.7765981643
 20
921.8604071464
 30
0.0
  0
VERTEX
  5
56C
  8
BGTBAS-0
 10
1146.2485527139
 20
910.1327336789
 30
0.0
  0
VERTEX
  5
56D
  8
BGTBAS-0
 10
1147.8620376924
 20
896.0994700013
 30
0.0
  0
VERTEX
  5
56E
  8
BGTBAS-0
 10
1149.4719819688
 20
880.9119430511
 30
0.0
  0
SEQEND
  5
A26
  8
BGTBAS-0
  0
POLYLINE
  5
16F
  8
BGTBAS-0
 66
     1
 10
0.0
 20
0.0
 30
0.0
 70
   128
  0
VERTEX
  5
56F
  8
BGTBAS-0
 10
1140.9629623445
 20
955.6655418586
 30
0.0
  0
VERTEX
  5
570
  8
BGTBAS-0
 10
1142.0546436146
 20
956.3640305128
 30
0.0
  0
VERTEX
  5
571
  8
BGTBAS-0
 10
1143.5265981643
 20
954.8279438841
 30
0.0
  0
VERTEX
  5
572
  8
BGTBAS-0
 10
1144.9985527139
 20
950.8429951658
 30
0.0
  0
VERTEX
  5
573
  8
BGTBAS-0
 10
1146.5265981643
 20
944.4126644853
 30
0.0
  0
VERTEX
  5
574
  8
BGTBAS-0
 10
1148.0546436146
 20
935.7316859768
 30
0.0
  0
VERTEX
  5
575
  8
BGTBAS-0
 10
1149.5265981643
 20
925.1600255924
 30
0.0
  0
VERTEX
  5
576
  8
BGTBAS-0
 10
1150.9985527139
 20
912.8610039304
 30
0.0
  0
VERTEX
  5
577
  8
BGTBAS-0
 10
1151.9677602781
 20
904.1704726949
 30
0.0
  0
VERTEX
  5
578
  8
BGTBAS-0
 10
1152.9454283662
 20
894.9480602024
 30
0.0
  0
SEQEND
  5
A27
  8
BGTBAS-0
  0
ARC
  5
170
  8
BGTBAS-0
 10
1263.6698750116
 20
860.100247106
 30
0.0
 40
116.0787369096097
 50
162.5298788349
 51
169.671718528
  0
POLYLINE
  5
171
  8
BGTBAS-0
 66
     1
 10
0.0
 20
0.0
 30
0.0
 70
   128
  0
VERTEX
  5
579
  8
BGTBAS-0
 10
237.1267088885
 20
951.506278347
 30
0.0
  0
VERTEX
  5
57A
  8
BGTBAS-0
 10
237.3046436146
 20
951.614837266
 30
0.0
  0
VERTEX
  5
57B
  8
BGTBAS-0
 10
238.7765981643
 20
950.1501091849
 30
0.0
  0
VERTEX
  5
57C
  8
BGTBAS-0
 10
240.2485527139
 20
946.3502803337
 30
0.0
  0
VERTEX
  5
57D
  8
BGTBAS-0
 10
241.7765981643
 20
940.2186691714
 30
0.0
  0
VERTEX
  5
57E
  8
BGTBAS-0
 10
243.3046436146
 20
931.9409635031
 30
0.0
  0
VERTEX
  5
57F
  8
BGTBAS-0
 10
244.7765981643
 20
921.8604071464
 30
0.0
  0
VERTEX
  5
580
  8
BGTBAS-0
 10
246.2485527139
 20
910.1327336789
 30
0.0
  0
VERTEX
  5
581
  8
BGTBAS-0
 10
247.8620475184
 20
896.0993809246
 30
0.0
  0
VERTEX
  5
582
  8
BGTBAS-0
 10
249.4720011712
 20
880.9117547231
 30
0.0
  0
SEQEND
  5
A28
  8
BGTBAS-0
  0
POLYLINE
  5
172
  8
BGTBAS-0
 66
     1
 10
0.0
 20
0.0
 30
0.0
 70
   128
  0
VERTEX
  5
583
  8
BGTBAS-0
 10
240.9629624355
 20
955.6655419168
 30
0.0
  0
VERTEX
  5
584
  8
BGTBAS-0
 10
242.0546436146
 20
956.3640305128
 30
0.0
  0
VERTEX
  5
585
  8
BGTBAS-0
 10
243.5265981643
 20
954.8279438841
 30
0.0
  0
VERTEX
  5
586
  8
BGTBAS-0
 10
244.9985527139
 20
950.8429951658
 30
0.0
  0
VERTEX
  5
587
  8
BGTBAS-0
 10
246.5265981643
 20
944.4126644853
 30
0.0
  0
VERTEX
  5
588
  8
BGTBAS-0
 10
248.0546436146
 20
935.7316859768
 30
0.0
  0
VERTEX
  5
589
  8
BGTBAS-0
 10
249.5265981643
 20
925.1600255924
 30
0.0
  0
VERTEX
  5
58A
  8
BGTBAS-0
 10
250.9985527139
 20
912.8610039304
 30
0.0
  0
VERTEX
  5
58B
  8
BGTBAS-0
 10
251.9677602781
 20
904.1704726949
 30
0.0
  0
VERTEX
  5
58C
  8
BGTBAS-0
 10
252.9454283662
 20
894.9480602024
 30
0.0
  0
SEQEND
  5
A29
  8
BGTBAS-0
  0
ARC
  5
173
  8
BGTBAS-0
 10
363.6698750117
 20
860.100247106
 30
0.0
 40
116.078736909641
 50
162.5298788349
 51
169.6717185279
  0
POLYLINE
  5
174
  8
BGTBAS-0
 66
     1
 10
0.0
 20
0.0
 30
0.0
 70
   128
  0
VERTEX
  5
58D
  8
BGTBAS-0
 10
897.1267088885
 20
951.506278347
 30
0.0
  0
VERTEX
  5
58E
  8
BGTBAS-0
 10
897.3046436146
 20
951.614837266
 30
0.0
  0
VERTEX
  5
58F
  8
BGTBAS-0
 10
898.7765981643
 20
950.1501091849
 30
0.0
  0
VERTEX
  5
590
  8
BGTBAS-0
 10
900.2485527139
 20
946.3502803337
 30
0.0
  0
VERTEX
  5
591
  8
BGTBAS-0
 10
901.7765981643
 20
940.2186691714
 30
0.0
  0
VERTEX
  5
592
  8
BGTBAS-0
 10
903.3046436146
 20
931.9409635031
 30
0.0
  0
VERTEX
  5
593
  8
BGTBAS-0
 10
904.7765981643
 20
921.8604071464
 30
0.0
  0
VERTEX
  5
594
  8
BGTBAS-0
 10
906.2485527139
 20
910.1327336789
 30
0.0
  0
VERTEX
  5
595
  8
BGTBAS-0
 10
907.8620520935
 20
896.0993394495
 30
0.0
  0
VERTEX
  5
596
  8
BGTBAS-0
 10
909.4720101121
 20
880.9116670355
 30
0.0
  0
SEQEND
  5
A2A
  8
BGTBAS-0
  0
POLYLINE
  5
175
  8
BGTBAS-0
 66
     1
 10
0.0
 20
0.0
 30
0.0
 70
   128
  0
VERTEX
  5
597
  8
BGTBAS-0
 10
900.9629623337
 20
955.6655418516
 30
0.0
  0
VERTEX
  5
598
  8
BGTBAS-0
 10
902.0546436146
 20
956.3640305128
 30
0.0
  0
VERTEX
  5
599
  8
BGTBAS-0
 10
903.5265981643
 20
954.8279438841
 30
0.0
  0
VERTEX
  5
59A
  8
BGTBAS-0
 10
904.9985527139
 20
950.8429951658
 30
0.0
  0
VERTEX
  5
59B
  8
BGTBAS-0
 10
906.5265981643
 20
944.4126644853
 30
0.0
  0
VERTEX
  5
59C
  8
BGTBAS-0
 10
908.0546436146
 20
935.7316859768
 30
0.0
  0
VERTEX
  5
59D
  8
BGTBAS-0
 10
909.5265981643
 20
925.1600255924
 30
0.0
  0
VERTEX
  5
59E
  8
BGTBAS-0
 10
910.9985527139
 20
912.8610039304
 30
0.0
  0
VERTEX
  5
59F
  8
BGTBAS-0
 10
911.9677602781
 20
904.1704726949
 30
0.0
  0
VERTEX
  5
5A0
  8
BGTBAS-0
 10
912.9454283662
 20
894.9480602024
 30
0.0
  0
SEQEND
  5
A2B
  8
BGTBAS-0
  0
ARC
  5
176
  8
BGTBAS-0
 10
1023.6698750117
 20
860.100247106
 30
0.0
 40
116.0787369096312
 50
162.5298788349
 51
169.6717185279
  0
POLYLINE
  5
177
  8
BGTBAS-0
 66
     1
 10
0.0
 20
0.0
 30
0.0
 70
   128
  0
VERTEX
  5
5A1
  8
BGTBAS-0
 10
357.1267088885
 20
951.506278347
 30
0.0
  0
VERTEX
  5
5A2
  8
BGTBAS-0
 10
357.3046436146
 20
951.614837266
 30
0.0
  0
VERTEX
  5
5A3
  8
BGTBAS-0
 10
358.7765981643
 20
950.1501091849
 30
0.0
  0
VERTEX
  5
5A4
  8
BGTBAS-0
 10
360.2485527139
 20
946.3502803337
 30
0.0
  0
VERTEX
  5
5A5
  8
BGTBAS-0
 10
361.7765981643
 20
940.2186691714
 30
0.0
  0
VERTEX
  5
5A6
  8
BGTBAS-0
 10
363.3046436146
 20
931.9409635031
 30
0.0
  0
VERTEX
  5
5A7
  8
BGTBAS-0
 10
364.7765981643
 20
921.8604071464
 30
0.0
  0
VERTEX
  5
5A8
  8
BGTBAS-0
 10
366.2485527139
 20
910.1327336789
 30
0.0
  0
VERTEX
  5
5A9
  8
BGTBAS-0
 10
367.8620518391
 20
896.0993417559
 30
0.0
  0
VERTEX
  5
5AA
  8
BGTBAS-0
 10
369.4720096149
 20
880.9116719118
 30
0.0
  0
SEQEND
  5
A2C
  8
BGTBAS-0
  0
POLYLINE
  5
178
  8
BGTBAS-0
 66
     1
 10
0.0
 20
0.0
 30
0.0
 70
   128
  0
VERTEX
  5
5AB
  8
BGTBAS-0
 10
360.9629623337
 20
955.6655418516
 30
0.0
  0
VERTEX
  5
5AC
  8
BGTBAS-0
 10
362.0546436146
 20
956.3640305128
 30
0.0
  0
VERTEX
  5
5AD
  8
BGTBAS-0
 10
363.5265981643
 20
954.8279438841
 30
0.0
  0
VERTEX
  5
5AE
  8
BGTBAS-0
 10
364.9985527139
 20
950.8429951658
 30
0.0
  0
VERTEX
  5
5AF
  8
BGTBAS-0
 10
366.5265981643
 20
944.4126644853
 30
0.0
  0
VERTEX
  5
5B0
  8
BGTBAS-0
 10
368.0546436146
 20
935.7316859768
 30
0.0
  0
VERTEX
  5
5B1
  8
BGTBAS-0
 10
369.5265981643
 20
925.1600255924
 30
0.0
  0
VERTEX
  5
5B2
  8
BGTBAS-0
 10
370.9985527139
 20
912.8610039304
 30
0.0
  0
VERTEX
  5
5B3
  8
BGTBAS-0
 10
371.9677602781
 20
904.1704726949
 30
0.0
  0
VERTEX
  5
5B4
  8
BGTBAS-0
 10
372.9454283662
 20
894.9480602024
 30
0.0
  0
SEQEND
  5
A2D
  8
BGTBAS-0
  0
ARC
  5
179
  8
BGTBAS-0
 10
483.6698750118
 20
860.100247106
 30
0.0
 40
116.0787369097327
 50
162.5298788349
 51
169.6717185279
  0
POLYLINE
  5
17A
  8
BGTBAS-0
 66
     1
 10
0.0
 20
0.0
 30
0.0
 70
   128
  0
VERTEX
  5
5B5
  8
BGTBAS-0
 10
597.1267088885
 20
951.506278347
 30
0.0
  0
VERTEX
  5
5B6
  8
BGTBAS-0
 10
597.3046436146
 20
951.614837266
 30
0.0
  0
VERTEX
  5
5B7
  8
BGTBAS-0
 10
598.7765981643
 20
950.1501091849
 30
0.0
  0
VERTEX
  5
5B8
  8
BGTBAS-0
 10
600.2485527139
 20
946.3502803337
 30
0.0
  0
VERTEX
  5
5B9
  8
BGTBAS-0
 10
601.7765981643
 20
940.2186691714
 30
0.0
  0
VERTEX
  5
5BA
  8
BGTBAS-0
 10
603.3046436146
 20
931.9409635031
 30
0.0
  0
VERTEX
  5
5BB
  8
BGTBAS-0
 10
604.7765981643
 20
921.8604071464
 30
0.0
  0
VERTEX
  5
5BC
  8
BGTBAS-0
 10
606.2485527139
 20
910.1327336789
 30
0.0
  0
VERTEX
  5
5BD
  8
BGTBAS-0
 10
607.8620517843
 20
896.0993422527
 30
0.0
  0
VERTEX
  5
5BE
  8
BGTBAS-0
 10
609.4720095078
 20
880.9116729622
 30
0.0
  0
SEQEND
  5
A2E
  8
BGTBAS-0
  0
POLYLINE
  5
17B
  8
BGTBAS-0
 66
     1
 10
0.0
 20
0.0
 30
0.0
 70
   128
  0
VERTEX
  5
5BF
  8
BGTBAS-0
 10
600.9629623336
 20
955.6655418516
 30
0.0
  0
VERTEX
  5
5C0
  8
BGTBAS-0
 10
602.0546436146
 20
956.3640305128
 30
0.0
  0
VERTEX
  5
5C1
  8
BGTBAS-0
 10
603.5265981643
 20
954.8279438841
 30
0.0
  0
VERTEX
  5
5C2
  8
BGTBAS-0
 10
604.9985527139
 20
950.8429951658
 30
0.0
  0
VERTEX
  5
5C3
  8
BGTBAS-0
 10
606.5265981643
 20
944.4126644853
 30
0.0
  0
VERTEX
  5
5C4
  8
BGTBAS-0
 10
608.0546436146
 20
935.7316859768
 30
0.0
  0
VERTEX
  5
5C5
  8
BGTBAS-0
 10
609.5265981643
 20
925.1600255924
 30
0.0
  0
VERTEX
  5
5C6
  8
BGTBAS-0
 10
610.9985527139
 20
912.8610039304
 30
0.0
  0
VERTEX
  5
5C7
  8
BGTBAS-0
 10
611.9677602781
 20
904.1704726949
 30
0.0
  0
VERTEX
  5
5C8
  8
BGTBAS-0
 10
612.9454283662
 20
894.9480602024
 30
0.0
  0
SEQEND
  5
A2F
  8
BGTBAS-0
  0
ARC
  5
17C
  8
BGTBAS-0
 10
723.6698750118
 20
860.100247106
 30
0.0
 40
116.0787369097365
 50
162.5298788349
 51
169.6717185279
  0
POLYLINE
  5
17D
  8
BGTBAS-0
 66
     1
 10
0.0
 20
0.0
 30
0.0
 70
   128
  0
VERTEX
  5
5C9
  8
BGTBAS-0
 10
1197.1267088885
 20
951.506278347
 30
0.0
  0
VERTEX
  5
5CA
  8
BGTBAS-0
 10
1197.3046436146
 20
951.614837266
 30
0.0
  0
VERTEX
  5
5CB
  8
BGTBAS-0
 10
1198.7765981643
 20
950.1501091849
 30
0.0
  0
VERTEX
  5
5CC
  8
BGTBAS-0
 10
1200.2485527139
 20
946.3502803337
 30
0.0
  0
VERTEX
  5
5CD
  8
BGTBAS-0
 10
1201.7765981643
 20
940.2186691714
 30
0.0
  0
VERTEX
  5
5CE
  8
BGTBAS-0
 10
1203.3046436146
 20
931.9409635031
 30
0.0
  0
VERTEX
  5
5CF
  8
BGTBAS-0
 10
1204.7765981643
 20
921.8604071464
 30
0.0
  0
VERTEX
  5
5D0
  8
BGTBAS-0
 10
1206.2485527139
 20
910.1327336789
 30
0.0
  0
VERTEX
  5
5D1
  8
BGTBAS-0
 10
1207.8620461228
 20
896.0993935768
 30
0.0
  0
VERTEX
  5
5D2
  8
BGTBAS-0
 10
1209.4719984438
 20
880.9117814727
 30
0.0
  0
SEQEND
  5
A30
  8
BGTBAS-0
  0
POLYLINE
  5
17E
  8
BGTBAS-0
 66
     1
 10
0.0
 20
0.0
 30
0.0
 70
   128
  0
VERTEX
  5
5D3
  8
BGTBAS-0
 10
1200.9629623332
 20
955.6655418513
 30
0.0
  0
VERTEX
  5
5D4
  8
BGTBAS-0
 10
1202.0546436146
 20
956.3640305128
 30
0.0
  0
VERTEX
  5
5D5
  8
BGTBAS-0
 10
1203.5265981643
 20
954.8279438841
 30
0.0
  0
VERTEX
  5
5D6
  8
BGTBAS-0
 10
1204.9985527139
 20
950.8429951658
 30
0.0
  0
VERTEX
  5
5D7
  8
BGTBAS-0
 10
1206.5265981643
 20
944.4126644853
 30
0.0
  0
VERTEX
  5
5D8
  8
BGTBAS-0
 10
1208.0546436146
 20
935.7316859768
 30
0.0
  0
VERTEX
  5
5D9
  8
BGTBAS-0
 10
1209.5265981643
 20
925.1600255924
 30
0.0
  0
VERTEX
  5
5DA
  8
BGTBAS-0
 10
1210.9985527139
 20
912.8610039304
 30
0.0
  0
VERTEX
  5
5DB
  8
BGTBAS-0
 10
1211.9677602781
 20
904.1704726949
 30
0.0
  0
VERTEX
  5
5DC
  8
BGTBAS-0
 10
1212.9454283662
 20
894.9480602024
 30
0.0
  0
SEQEND
  5
A31
  8
BGTBAS-0
  0
ARC
  5
17F
  8
BGTBAS-0
 10
1323.6698750117
 20
860.100247106
 30
0.0
 40
116.0787369096637
 50
162.5298788349
 51
169.6717185279
  0
POLYLINE
  5
180
  8
BGTBAS-0
 66
     1
 10
0.0
 20
0.0
 30
0.0
 70
   128
  0
VERTEX
  5
5DD
  8
BGTBAS-0
 10
1437.1267088885
 20
951.506278347
 30
0.0
  0
VERTEX
  5
5DE
  8
BGTBAS-0
 10
1437.3046436146
 20
951.614837266
 30
0.0
  0
VERTEX
  5
5DF
  8
BGTBAS-0
 10
1438.7765981643
 20
950.1501091849
 30
0.0
  0
VERTEX
  5
5E0
  8
BGTBAS-0
 10
1440.2485527139
 20
946.3502803337
 30
0.0
  0
VERTEX
  5
5E1
  8
BGTBAS-0
 10
1441.7765981643
 20
940.2186691714
 30
0.0
  0
VERTEX
  5
5E2
  8
BGTBAS-0
 10
1443.3046436146
 20
931.9409635031
 30
0.0
  0
VERTEX
  5
5E3
  8
BGTBAS-0
 10
1444.7765981643
 20
921.8604071464
 30
0.0
  0
VERTEX
  5
5E4
  8
BGTBAS-0
 10
1446.2485527139
 20
910.1327336789
 30
0.0
  0
VERTEX
  5
5E5
  8
BGTBAS-0
 10
1447.8620452769
 20
896.0994012451
 30
0.0
  0
VERTEX
  5
5E6
  8
BGTBAS-0
 10
1449.4719967907
 20
880.9117976852
 30
0.0
  0
SEQEND
  5
A32
  8
BGTBAS-0
  0
POLYLINE
  5
181
  8
BGTBAS-0
 66
     1
 10
0.0
 20
0.0
 30
0.0
 70
   128
  0
VERTEX
  5
5E7
  8
BGTBAS-0
 10
1440.962962371
 20
955.6655418755
 30
0.0
  0
VERTEX
  5
5E8
  8
BGTBAS-0
 10
1442.0546436146
 20
956.3640305128
 30
0.0
  0
VERTEX
  5
5E9
  8
BGTBAS-0
 10
1443.5265981643
 20
954.8279438841
 30
0.0
  0
VERTEX
  5
5EA
  8
BGTBAS-0
 10
1444.9985527139
 20
950.8429951658
 30
0.0
  0
VERTEX
  5
5EB
  8
BGTBAS-0
 10
1446.5265981643
 20
944.4126644853
 30
0.0
  0
VERTEX
  5
5EC
  8
BGTBAS-0
 10
1448.0546436146
 20
935.7316859768
 30
0.0
  0
VERTEX
  5
5ED
  8
BGTBAS-0
 10
1449.5265981643
 20
925.1600255924
 30
0.0
  0
VERTEX
  5
5EE
  8
BGTBAS-0
 10
1450.9985527139
 20
912.8610039304
 30
0.0
  0
VERTEX
  5
5EF
  8
BGTBAS-0
 10
1451.9677602781
 20
904.1704726949
 30
0.0
  0
VERTEX
  5
5F0
  8
BGTBAS-0
 10
1452.9454283662
 20
894.9480602024
 30
0.0
  0
SEQEND
  5
A33
  8
BGTBAS-0
  0
ARC
  5
182
  8
BGTBAS-0
 10
1563.6698750117
 20
860.100247106
 30
0.0
 40
116.0787369097093
 50
162.5298788349
 51
169.6717185279
  0
POLYLINE
  5
183
  8
BGTBAS-0
 66
     1
 10
0.0
 20
0.0
 30
0.0
 70
   128
  0
VERTEX
  5
5F1
  8
BGTBAS-0
 10
1257.1267088885
 20
951.506278347
 30
0.0
  0
VERTEX
  5
5F2
  8
BGTBAS-0
 10
1257.3046436146
 20
951.614837266
 30
0.0
  0
VERTEX
  5
5F3
  8
BGTBAS-0
 10
1258.7765981643
 20
950.1501091849
 30
0.0
  0
VERTEX
  5
5F4
  8
BGTBAS-0
 10
1260.2485527139
 20
946.3502803337
 30
0.0
  0
VERTEX
  5
5F5
  8
BGTBAS-0
 10
1261.7765981643
 20
940.2186691714
 30
0.0
  0
VERTEX
  5
5F6
  8
BGTBAS-0
 10
1263.3046436146
 20
931.9409635031
 30
0.0
  0
VERTEX
  5
5F7
  8
BGTBAS-0
 10
1264.7765981643
 20
921.8604071464
 30
0.0
  0
VERTEX
  5
5F8
  8
BGTBAS-0
 10
1266.2485527139
 20
910.1327336789
 30
0.0
  0
VERTEX
  5
5F9
  8
BGTBAS-0
 10
1267.8620448835
 20
896.0994048113
 30
0.0
  0
VERTEX
  5
5FA
  8
BGTBAS-0
 10
1269.4719960219
 20
880.911805225
 30
0.0
  0
SEQEND
  5
A34
  8
BGTBAS-0
  0
POLYLINE
  5
184
  8
BGTBAS-0
 66
     1
 10
0.0
 20
0.0
 30
0.0
 70
   128
  0
VERTEX
  5
5FB
  8
BGTBAS-0
 10
1260.9629623572
 20
955.6655418667
 30
0.0
  0
VERTEX
  5
5FC
  8
BGTBAS-0
 10
1262.0546436146
 20
956.3640305128
 30
0.0
  0
VERTEX
  5
5FD
  8
BGTBAS-0
 10
1263.5265981643
 20
954.8279438841
 30
0.0
  0
VERTEX
  5
5FE
  8
BGTBAS-0
 10
1264.9985527139
 20
950.8429951658
 30
0.0
  0
VERTEX
  5
5FF
  8
BGTBAS-0
 10
1266.5265981643
 20
944.4126644853
 30
0.0
  0
VERTEX
  5
600
  8
BGTBAS-0
 10
1268.0546436146
 20
935.7316859768
 30
0.0
  0
VERTEX
  5
601
  8
BGTBAS-0
 10
1269.5265981643
 20
925.1600255924
 30
0.0
  0
VERTEX
  5
602
  8
BGTBAS-0
 10
1270.9985527139
 20
912.8610039304
 30
0.0
  0
VERTEX
  5
603
  8
BGTBAS-0
 10
1271.9677602781
 20
904.1704726949
 30
0.0
  0
VERTEX
  5
604
  8
BGTBAS-0
 10
1272.9454283662
 20
894.9480602024
 30
0.0
  0
SEQEND
  5
A35
  8
BGTBAS-0
  0
ARC
  5
185
  8
BGTBAS-0
 10
1383.6698750117
 20
860.100247106
 30
0.0
 40
116.078736909637
 50
162.5298788349
 51
169.671718528
  0
POLYLINE
  5
186
  8
BGTBAS-0
 66
     1
 10
0.0
 20
0.0
 30
0.0
 70
   128
  0
VERTEX
  5
605
  8
BGTBAS-0
 10
1377.1267088885
 20
951.506278347
 30
0.0
  0
VERTEX
  5
606
  8
BGTBAS-0
 10
1377.3046436146
 20
951.614837266
 30
0.0
  0
VERTEX
  5
607
  8
BGTBAS-0
 10
1378.7765981643
 20
950.1501091849
 30
0.0
  0
VERTEX
  5
608
  8
BGTBAS-0
 10
1380.2485527139
 20
946.3502803337
 30
0.0
  0
VERTEX
  5
609
  8
BGTBAS-0
 10
1381.7765981643
 20
940.2186691714
 30
0.0
  0
VERTEX
  5
60A
  8
BGTBAS-0
 10
1383.3046436146
 20
931.9409635031
 30
0.0
  0
VERTEX
  5
60B
  8
BGTBAS-0
 10
1384.7765981643
 20
921.8604071464
 30
0.0
  0
VERTEX
  5
60C
  8
BGTBAS-0
 10
1386.2485527139
 20
910.1327336789
 30
0.0
  0
VERTEX
  5
60D
  8
BGTBAS-0
 10
1387.8620452001
 20
896.0994019413
 30
0.0
  0
VERTEX
  5
60E
  8
BGTBAS-0
 10
1389.4719966406
 20
880.9117991572
 30
0.0
  0
SEQEND
  5
A36
  8
BGTBAS-0
  0
POLYLINE
  5
187
  8
BGTBAS-0
 66
     1
 10
0.0
 20
0.0
 30
0.0
 70
   128
  0
VERTEX
  5
60F
  8
BGTBAS-0
 10
1380.9629623332
 20
955.6655418513
 30
0.0
  0
VERTEX
  5
610
  8
BGTBAS-0
 10
1382.0546436146
 20
956.3640305128
 30
0.0
  0
VERTEX
  5
611
  8
BGTBAS-0
 10
1383.5265981643
 20
954.8279438841
 30
0.0
  0
VERTEX
  5
612
  8
BGTBAS-0
 10
1384.9985527139
 20
950.8429951658
 30
0.0
  0
VERTEX
  5
613
  8
BGTBAS-0
 10
1386.5265981643
 20
944.4126644853
 30
0.0
  0
VERTEX
  5
614
  8
BGTBAS-0
 10
1388.0546436146
 20
935.7316859768
 30
0.0
  0
VERTEX
  5
615
  8
BGTBAS-0
 10
1389.5265981643
 20
925.1600255924
 30
0.0
  0
VERTEX
  5
616
  8
BGTBAS-0
 10
1390.9985527139
 20
912.8610039304
 30
0.0
  0
VERTEX
  5
617
  8
BGTBAS-0
 10
1391.9677602781
 20
904.1704726949
 30
0.0
  0
VERTEX
  5
618
  8
BGTBAS-0
 10
1392.9454283662
 20
894.9480602024
 30
0.0
  0
SEQEND
  5
A37
  8
BGTBAS-0
  0
ARC
  5
188
  8
BGTBAS-0
 10
1503.6698750116
 20
860.100247106
 30
0.0
 40
116.0787369095544
 50
162.5298788349
 51
169.6717185279
  0
POLYLINE
  5
189
  8
BGTBAS-0
 66
     1
 10
0.0
 20
0.0
 30
0.0
 70
   128
  0
VERTEX
  5
619
  8
BGTBAS-0
 10
837.1267088885
 20
951.506278347
 30
0.0
  0
VERTEX
  5
61A
  8
BGTBAS-0
 10
837.3046436146
 20
951.614837266
 30
0.0
  0
VERTEX
  5
61B
  8
BGTBAS-0
 10
838.7765981643
 20
950.1501091849
 30
0.0
  0
VERTEX
  5
61C
  8
BGTBAS-0
 10
840.2485527139
 20
946.3502803337
 30
0.0
  0
VERTEX
  5
61D
  8
BGTBAS-0
 10
841.7765981643
 20
940.2186691714
 30
0.0
  0
VERTEX
  5
61E
  8
BGTBAS-0
 10
843.3046436146
 20
931.9409635031
 30
0.0
  0
VERTEX
  5
61F
  8
BGTBAS-0
 10
844.7765981643
 20
921.8604071464
 30
0.0
  0
VERTEX
  5
620
  8
BGTBAS-0
 10
846.2485527139
 20
910.1327336789
 30
0.0
  0
VERTEX
  5
621
  8
BGTBAS-0
 10
847.8620475796
 20
896.0993803695
 30
0.0
  0
VERTEX
  5
622
  8
BGTBAS-0
 10
849.4720012909
 20
880.9117535496
 30
0.0
  0
SEQEND
  5
A38
  8
BGTBAS-0
  0
POLYLINE
  5
18A
  8
BGTBAS-0
 66
     1
 10
0.0
 20
0.0
 30
0.0
 70
   128
  0
VERTEX
  5
623
  8
BGTBAS-0
 10
840.9629623576
 20
955.6655418669
 30
0.0
  0
VERTEX
  5
624
  8
BGTBAS-0
 10
842.0546436146
 20
956.3640305128
 30
0.0
  0
VERTEX
  5
625
  8
BGTBAS-0
 10
843.5265981643
 20
954.8279438841
 30
0.0
  0
VERTEX
  5
626
  8
BGTBAS-0
 10
844.9985527139
 20
950.8429951658
 30
0.0
  0
VERTEX
  5
627
  8
BGTBAS-0
 10
846.5265981643
 20
944.4126644853
 30
0.0
  0
VERTEX
  5
628
  8
BGTBAS-0
 10
848.0546436146
 20
935.7316859768
 30
0.0
  0
VERTEX
  5
629
  8
BGTBAS-0
 10
849.5265981643
 20
925.1600255924
 30
0.0
  0
VERTEX
  5
62A
  8
BGTBAS-0
 10
850.9985527139
 20
912.8610039304
 30
0.0
  0
VERTEX
  5
62B
  8
BGTBAS-0
 10
851.9677602781
 20
904.1704726949
 30
0.0
  0
VERTEX
  5
62C
  8
BGTBAS-0
 10
852.9454283662
 20
894.9480602024
 30
0.0
  0
SEQEND
  5
A39
  8
BGTBAS-0
  0
ARC
  5
18B
  8
BGTBAS-0
 10
963.6698750118
 20
860.100247106
 30
0.0
 40
116.0787369098132
 50
162.5298788349
 51
169.6717185279
  0
POLYLINE
  5
18C
  8
BGTBAS-0
 66
     1
 10
0.0
 20
0.0
 30
0.0
 70
   128
  0
VERTEX
  5
62D
  8
BGTBAS-0
 10
1077.1267088885
 20
951.506278347
 30
0.0
  0
VERTEX
  5
62E
  8
BGTBAS-0
 10
1077.3046436146
 20
951.614837266
 30
0.0
  0
VERTEX
  5
62F
  8
BGTBAS-0
 10
1078.7765981643
 20
950.1501091849
 30
0.0
  0
VERTEX
  5
630
  8
BGTBAS-0
 10
1080.2485527139
 20
946.3502803337
 30
0.0
  0
VERTEX
  5
631
  8
BGTBAS-0
 10
1081.7765981643
 20
940.2186691714
 30
0.0
  0
VERTEX
  5
632
  8
BGTBAS-0
 10
1083.3046436146
 20
931.9409635031
 30
0.0
  0
VERTEX
  5
633
  8
BGTBAS-0
 10
1084.7765981643
 20
921.8604071464
 30
0.0
  0
VERTEX
  5
634
  8
BGTBAS-0
 10
1086.2485527139
 20
910.1327336789
 30
0.0
  0
VERTEX
  5
635
  8
BGTBAS-0
 10
1087.8620490861
 20
896.0993667131
 30
0.0
  0
VERTEX
  5
636
  8
BGTBAS-0
 10
1089.4720042348
 20
880.9117246769
 30
0.0
  0
SEQEND
  5
A3A
  8
BGTBAS-0
  0
POLYLINE
  5
18D
  8
BGTBAS-0
 66
     1
 10
0.0
 20
0.0
 30
0.0
 70
   128
  0
VERTEX
  5
637
  8
BGTBAS-0
 10
1080.9629623522
 20
955.6655418635
 30
0.0
  0
VERTEX
  5
638
  8
BGTBAS-0
 10
1082.0546436146
 20
956.3640305128
 30
0.0
  0
VERTEX
  5
639
  8
BGTBAS-0
 10
1083.5265981643
 20
954.8279438841
 30
0.0
  0
VERTEX
  5
63A
  8
BGTBAS-0
 10
1084.9985527139
 20
950.8429951658
 30
0.0
  0
VERTEX
  5
63B
  8
BGTBAS-0
 10
1086.5265981643
 20
944.4126644853
 30
0.0
  0
VERTEX
  5
63C
  8
BGTBAS-0
 10
1088.0546436146
 20
935.7316859768
 30
0.0
  0
VERTEX
  5
63D
  8
BGTBAS-0
 10
1089.5265981643
 20
925.1600255924
 30
0.0
  0
VERTEX
  5
63E
  8
BGTBAS-0
 10
1090.9985527139
 20
912.8610039304
 30
0.0
  0
VERTEX
  5
63F
  8
BGTBAS-0
 10
1091.9677602781
 20
904.1704726949
 30
0.0
  0
VERTEX
  5
640
  8
BGTBAS-0
 10
1092.9454283662
 20
894.9480602024
 30
0.0
  0
SEQEND
  5
A3B
  8
BGTBAS-0
  0
ARC
  5
18E
  8
BGTBAS-0
 10
1203.6698750116
 20
860.100247106
 30
0.0
 40
116.078736909556
 50
162.5298788349
 51
169.671718528
  0
POLYLINE
  5
18F
  8
BGTBAS-0
 66
     1
 10
0.0
 20
0.0
 30
0.0
 70
   128
  0
VERTEX
  5
641
  8
BGTBAS-0
 10
1317.1267088885
 20
951.506278347
 30
0.0
  0
VERTEX
  5
642
  8
BGTBAS-0
 10
1317.3046436146
 20
951.614837266
 30
0.0
  0
VERTEX
  5
643
  8
BGTBAS-0
 10
1318.7765981643
 20
950.1501091849
 30
0.0
  0
VERTEX
  5
644
  8
BGTBAS-0
 10
1320.2485527139
 20
946.3502803337
 30
0.0
  0
VERTEX
  5
645
  8
BGTBAS-0
 10
1321.7765981643
 20
940.2186691714
 30
0.0
  0
VERTEX
  5
646
  8
BGTBAS-0
 10
1323.3046436146
 20
931.9409635031
 30
0.0
  0
VERTEX
  5
647
  8
BGTBAS-0
 10
1324.7765981643
 20
921.8604071464
 30
0.0
  0
VERTEX
  5
648
  8
BGTBAS-0
 10
1326.2485527139
 20
910.1327336789
 30
0.0
  0
VERTEX
  5
649
  8
BGTBAS-0
 10
1327.8620490647
 20
896.0993669067
 30
0.0
  0
VERTEX
  5
64A
  8
BGTBAS-0
 10
1329.4720041931
 20
880.9117250862
 30
0.0
  0
SEQEND
  5
A3C
  8
BGTBAS-0
  0
POLYLINE
  5
190
  8
BGTBAS-0
 66
     1
 10
0.0
 20
0.0
 30
0.0
 70
   128
  0
VERTEX
  5
64B
  8
BGTBAS-0
 10
1320.9629623334
 20
955.6655418514
 30
0.0
  0
VERTEX
  5
64C
  8
BGTBAS-0
 10
1322.0546436146
 20
956.3640305128
 30
0.0
  0
VERTEX
  5
64D
  8
BGTBAS-0
 10
1323.5265981643
 20
954.8279438841
 30
0.0
  0
VERTEX
  5
64E
  8
BGTBAS-0
 10
1324.9985527139
 20
950.8429951658
 30
0.0
  0
VERTEX
  5
64F
  8
BGTBAS-0
 10
1326.5265981643
 20
944.4126644853
 30
0.0
  0
VERTEX
  5
650
  8
BGTBAS-0
 10
1328.0546436146
 20
935.7316859768
 30
0.0
  0
VERTEX
  5
651
  8
BGTBAS-0
 10
1329.5265981643
 20
925.1600255924
 30
0.0
  0
VERTEX
  5
652
  8
BGTBAS-0
 10
1330.9985527139
 20
912.8610039304
 30
0.0
  0
VERTEX
  5
653
  8
BGTBAS-0
 10
1331.9677602781
 20
904.1704726949
 30
0.0
  0
VERTEX
  5
654
  8
BGTBAS-0
 10
1332.9454283662
 20
894.9480602024
 30
0.0
  0
SEQEND
  5
A3D
  8
BGTBAS-0
  0
ARC
  5
191
  8
BGTBAS-0
 10
1443.6698750117
 20
860.100247106
 30
0.0
 40
116.0787369096497
 50
162.5298788349
 51
169.6717185279
  0
POLYLINE
  5
192
  8
BGTBAS-0
 66
     1
 10
0.0
 20
0.0
 30
0.0
 70
   128
  0
VERTEX
  5
655
  8
BGTBAS-0
 10
777.1267088885
 20
951.506278347
 30
0.0
  0
VERTEX
  5
656
  8
BGTBAS-0
 10
777.3046436146
 20
951.614837266
 30
0.0
  0
VERTEX
  5
657
  8
BGTBAS-0
 10
778.7765981643
 20
950.1501091849
 30
0.0
  0
VERTEX
  5
658
  8
BGTBAS-0
 10
780.2485527139
 20
946.3502803337
 30
0.0
  0
VERTEX
  5
659
  8
BGTBAS-0
 10
781.7765981643
 20
940.2186691714
 30
0.0
  0
VERTEX
  5
65A
  8
BGTBAS-0
 10
783.3046436146
 20
931.9409635031
 30
0.0
  0
VERTEX
  5
65B
  8
BGTBAS-0
 10
784.7765981643
 20
921.8604071464
 30
0.0
  0
VERTEX
  5
65C
  8
BGTBAS-0
 10
786.2485527139
 20
910.1327336789
 30
0.0
  0
VERTEX
  5
65D
  8
BGTBAS-0
 10
787.8620475799
 20
896.0993803676
 30
0.0
  0
VERTEX
  5
65E
  8
BGTBAS-0
 10
789.4720012913
 20
880.9117535455
 30
0.0
  0
SEQEND
  5
A3E
  8
BGTBAS-0
  0
POLYLINE
  5
193
  8
BGTBAS-0
 66
     1
 10
0.0
 20
0.0
 30
0.0
 70
   128
  0
VERTEX
  5
65F
  8
BGTBAS-0
 10
780.9629623332
 20
955.6655418513
 30
0.0
  0
VERTEX
  5
660
  8
BGTBAS-0
 10
782.0546436146
 20
956.3640305128
 30
0.0
  0
VERTEX
  5
661
  8
BGTBAS-0
 10
783.5265981643
 20
954.8279438841
 30
0.0
  0
VERTEX
  5
662
  8
BGTBAS-0
 10
784.9985527139
 20
950.8429951658
 30
0.0
  0
VERTEX
  5
663
  8
BGTBAS-0
 10
786.5265981643
 20
944.4126644853
 30
0.0
  0
VERTEX
  5
664
  8
BGTBAS-0
 10
788.0546436146
 20
935.7316859768
 30
0.0
  0
VERTEX
  5
665
  8
BGTBAS-0
 10
789.5265981643
 20
925.1600255924
 30
0.0
  0
VERTEX
  5
666
  8
BGTBAS-0
 10
790.9985527139
 20
912.8610039304
 30
0.0
  0
VERTEX
  5
667
  8
BGTBAS-0
 10
791.9677602781
 20
904.1704726949
 30
0.0
  0
VERTEX
  5
668
  8
BGTBAS-0
 10
792.9454283662
 20
894.9480602024
 30
0.0
  0
SEQEND
  5
A3F
  8
BGTBAS-0
  0
ARC
  5
194
  8
BGTBAS-0
 10
903.6698750118
 20
860.100247106
 30
0.0
 40
116.0787369097895
 50
162.5298788349
 51
169.6717185279
  0
POLYLINE
  5
195
  8
BGTBAS-0
 66
     1
 10
0.0
 20
0.0
 30
0.0
 70
   128
  0
VERTEX
  5
669
  8
BGTBAS-0
 10
537.1267088885
 20
951.506278347
 30
0.0
  0
VERTEX
  5
66A
  8
BGTBAS-0
 10
537.3046436146
 20
951.614837266
 30
0.0
  0
VERTEX
  5
66B
  8
BGTBAS-0
 10
538.7765981643
 20
950.1501091849
 30
0.0
  0
VERTEX
  5
66C
  8
BGTBAS-0
 10
540.2485527139
 20
946.3502803337
 30
0.0
  0
VERTEX
  5
66D
  8
BGTBAS-0
 10
541.7765981643
 20
940.2186691714
 30
0.0
  0
VERTEX
  5
66E
  8
BGTBAS-0
 10
543.3046436146
 20
931.9409635031
 30
0.0
  0
VERTEX
  5
66F
  8
BGTBAS-0
 10
544.7765981643
 20
921.8604071464
 30
0.0
  0
VERTEX
  5
670
  8
BGTBAS-0
 10
546.2485527139
 20
910.1327336789
 30
0.0
  0
VERTEX
  5
671
  8
BGTBAS-0
 10
547.8620475799
 20
896.0993803676
 30
0.0
  0
VERTEX
  5
672
  8
BGTBAS-0
 10
549.4720012913
 20
880.9117535455
 30
0.0
  0
SEQEND
  5
A40
  8
BGTBAS-0
  0
POLYLINE
  5
196
  8
BGTBAS-0
 66
     1
 10
0.0
 20
0.0
 30
0.0
 70
   128
  0
VERTEX
  5
673
  8
BGTBAS-0
 10
540.9629623332
 20
955.6655418513
 30
0.0
  0
VERTEX
  5
674
  8
BGTBAS-0
 10
542.0546436146
 20
956.3640305128
 30
0.0
  0
VERTEX
  5
675
  8
BGTBAS-0
 10
543.5265981643
 20
954.8279438841
 30
0.0
  0
VERTEX
  5
676
  8
BGTBAS-0
 10
544.9985527139
 20
950.8429951658
 30
0.0
  0
VERTEX
  5
677
  8
BGTBAS-0
 10
546.5265981643
 20
944.4126644853
 30
0.0
  0
VERTEX
  5
678
  8
BGTBAS-0
 10
548.0546436146
 20
935.7316859768
 30
0.0
  0
VERTEX
  5
679
  8
BGTBAS-0
 10
549.5265981643
 20
925.1600255924
 30
0.0
  0
VERTEX
  5
67A
  8
BGTBAS-0
 10
550.9985527139
 20
912.8610039304
 30
0.0
  0
VERTEX
  5
67B
  8
BGTBAS-0
 10
551.9677602781
 20
904.1704726949
 30
0.0
  0
VERTEX
  5
67C
  8
BGTBAS-0
 10
552.9454283662
 20
894.9480602024
 30
0.0
  0
SEQEND
  5
A41
  8
BGTBAS-0
  0
ARC
  5
197
  8
BGTBAS-0
 10
663.6698750118
 20
860.100247106
 30
0.0
 40
116.0787369097561
 50
162.5298788349
 51
169.6717185279
  0
POLYLINE
  5
198
  8
BGTBAS-0
 66
     1
 10
0.0
 20
0.0
 30
0.0
 70
   128
  0
VERTEX
  5
67D
  8
BGTBAS-0
 10
657.1267088885
 20
951.506278347
 30
0.0
  0
VERTEX
  5
67E
  8
BGTBAS-0
 10
657.3046436146
 20
951.614837266
 30
0.0
  0
VERTEX
  5
67F
  8
BGTBAS-0
 10
658.7765981643
 20
950.1501091849
 30
0.0
  0
VERTEX
  5
680
  8
BGTBAS-0
 10
660.2485527139
 20
946.3502803337
 30
0.0
  0
VERTEX
  5
681
  8
BGTBAS-0
 10
661.7765981643
 20
940.2186691714
 30
0.0
  0
VERTEX
  5
682
  8
BGTBAS-0
 10
663.3046436146
 20
931.9409635031
 30
0.0
  0
VERTEX
  5
683
  8
BGTBAS-0
 10
664.7765981643
 20
921.8604071464
 30
0.0
  0
VERTEX
  5
684
  8
BGTBAS-0
 10
666.2485527139
 20
910.1327336789
 30
0.0
  0
VERTEX
  5
685
  8
BGTBAS-0
 10
667.8620475783
 20
896.0993803816
 30
0.0
  0
VERTEX
  5
686
  8
BGTBAS-0
 10
669.4720012883
 20
880.911753575
 30
0.0
  0
SEQEND
  5
A42
  8
BGTBAS-0
  0
POLYLINE
  5
199
  8
BGTBAS-0
 66
     1
 10
0.0
 20
0.0
 30
0.0
 70
   128
  0
VERTEX
  5
687
  8
BGTBAS-0
 10
660.9629623332
 20
955.6655418513
 30
0.0
  0
VERTEX
  5
688
  8
BGTBAS-0
 10
662.0546436146
 20
956.3640305128
 30
0.0
  0
VERTEX
  5
689
  8
BGTBAS-0
 10
663.5265981643
 20
954.8279438841
 30
0.0
  0
VERTEX
  5
68A
  8
BGTBAS-0
 10
664.9985527139
 20
950.8429951658
 30
0.0
  0
VERTEX
  5
68B
  8
BGTBAS-0
 10
666.5265981643
 20
944.4126644853
 30
0.0
  0
VERTEX
  5
68C
  8
BGTBAS-0
 10
668.0546436146
 20
935.7316859768
 30
0.0
  0
VERTEX
  5
68D
  8
BGTBAS-0
 10
669.5265981643
 20
925.1600255924
 30
0.0
  0
VERTEX
  5
68E
  8
BGTBAS-0
 10
670.9985527139
 20
912.8610039304
 30
0.0
  0
VERTEX
  5
68F
  8
BGTBAS-0
 10
671.9677602781
 20
904.1704726949
 30
0.0
  0
VERTEX
  5
690
  8
BGTBAS-0
 10
672.9454283662
 20
894.9480602024
 30
0.0
  0
SEQEND
  5
A43
  8
BGTBAS-0
  0
ARC
  5
19A
  8
BGTBAS-0
 10
783.6698750117
 20
860.100247106
 30
0.0
 40
116.0787369096561
 50
162.5298788349
 51
169.6717185279
  0
POLYLINE
  5
19B
  8
BGTBAS-0
 66
     1
 10
0.0
 20
0.0
 30
0.0
 70
   128
  0
VERTEX
  5
691
  8
BGTBAS-0
 10
297.1267088885
 20
951.506278347
 30
0.0
  0
VERTEX
  5
692
  8
BGTBAS-0
 10
297.3046436146
 20
951.614837266
 30
0.0
  0
VERTEX
  5
693
  8
BGTBAS-0
 10
298.7765981643
 20
950.1501091849
 30
0.0
  0
VERTEX
  5
694
  8
BGTBAS-0
 10
300.2485527139
 20
946.3502803337
 30
0.0
  0
VERTEX
  5
695
  8
BGTBAS-0
 10
301.7765981643
 20
940.2186691714
 30
0.0
  0
VERTEX
  5
696
  8
BGTBAS-0
 10
303.3046436146
 20
931.9409635031
 30
0.0
  0
VERTEX
  5
697
  8
BGTBAS-0
 10
304.7765981643
 20
921.8604071464
 30
0.0
  0
VERTEX
  5
698
  8
BGTBAS-0
 10
306.2485527139
 20
910.1327336789
 30
0.0
  0
VERTEX
  5
699
  8
BGTBAS-0
 10
307.8620475799
 20
896.0993803676
 30
0.0
  0
VERTEX
  5
69A
  8
BGTBAS-0
 10
309.4720012913
 20
880.9117535455
 30
0.0
  0
SEQEND
  5
A44
  8
BGTBAS-0
  0
POLYLINE
  5
19C
  8
BGTBAS-0
 66
     1
 10
0.0
 20
0.0
 30
0.0
 70
   128
  0
VERTEX
  5
69B
  8
BGTBAS-0
 10
300.9629623332
 20
955.6655418513
 30
0.0
  0
VERTEX
  5
69C
  8
BGTBAS-0
 10
302.0546436146
 20
956.3640305128
 30
0.0
  0
VERTEX
  5
69D
  8
BGTBAS-0
 10
303.5265981643
 20
954.8279438841
 30
0.0
  0
VERTEX
  5
69E
  8
BGTBAS-0
 10
304.9985527139
 20
950.8429951658
 30
0.0
  0
VERTEX
  5
69F
  8
BGTBAS-0
 10
306.5265981643
 20
944.4126644853
 30
0.0
  0
VERTEX
  5
6A0
  8
BGTBAS-0
 10
308.0546436146
 20
935.7316859768
 30
0.0
  0
VERTEX
  5
6A1
  8
BGTBAS-0
 10
309.5265981643
 20
925.1600255924
 30
0.0
  0
VERTEX
  5
6A2
  8
BGTBAS-0
 10
310.9985527139
 20
912.8610039304
 30
0.0
  0
VERTEX
  5
6A3
  8
BGTBAS-0
 10
311.9677602781
 20
904.1704726949
 30
0.0
  0
VERTEX
  5
6A4
  8
BGTBAS-0
 10
312.9454283662
 20
894.9480602024
 30
0.0
  0
SEQEND
  5
A45
  8
BGTBAS-0
  0
ARC
  5
19D
  8
BGTBAS-0
 10
423.6698750117
 20
860.100247106
 30
0.0
 40
116.0787369096412
 50
162.5298788349
 51
169.6717185279
  0
POLYLINE
  5
19E
  8
BGTBAS-0
 66
     1
 10
0.0
 20
0.0
 30
0.0
 70
   128
  0
VERTEX
  5
6A5
  8
BGTBAS-0
 10
1293.7816448069
 20
827.3510403315
 30
0.0
  0
VERTEX
  5
6A6
  8
BGTBAS-0
 10
1295.4044644342
 20
811.8416830397
 30
0.0
  0
VERTEX
  5
6A7
  8
BGTBAS-0
 10
1296.9894356432
 20
797.6623160185
 30
0.0
  0
VERTEX
  5
6A8
  8
BGTBAS-0
 10
1298.644135737
 20
784.9262409436
 30
0.0
  0
VERTEX
  5
6A9
  8
BGTBAS-0
 10
1300.3046436146
 20
774.2094437129
 30
0.0
  0
VERTEX
  5
6AA
  8
BGTBAS-0
 10
1301.7765981643
 20
766.4988671757
 30
0.0
  0
VERTEX
  5
6AB
  8
BGTBAS-0
 10
1303.2485527139
 20
760.9194459409
 30
0.0
  0
VERTEX
  5
6AC
  8
BGTBAS-0
 10
1304.7765981643
 20
757.5802252349
 30
0.0
  0
VERTEX
  5
6AD
  8
BGTBAS-0
 10
1306.1267088885
 20
756.7565155299
 30
0.0
  0
SEQEND
  5
A46
  8
BGTBAS-0
  0
POLYLINE
  5
19F
  8
BGTBAS-0
 66
     1
 10
0.0
 20
0.0
 30
0.0
 70
   128
  0
VERTEX
  5
6AE
  8
BGTBAS-0
 10
1290.2973962788
 20
813.3147336746
 30
0.0
  0
VERTEX
  5
6AF
  8
BGTBAS-0
 10
1291.566012292
 20
800.9829180069
 30
0.0
  0
VERTEX
  5
6B0
  8
BGTBAS-0
 10
1292.8755977616
 20
789.5186134928
 30
0.0
  0
VERTEX
  5
6B1
  8
BGTBAS-0
 10
1294.2178569242
 20
779.1936778779
 30
0.0
  0
VERTEX
  5
6B2
  8
BGTBAS-0
 10
1295.5546436146
 20
770.3158100942
 30
0.0
  0
VERTEX
  5
6B3
  8
BGTBAS-0
 10
1297.0265981643
 20
762.2295900847
 30
0.0
  0
VERTEX
  5
6B4
  8
BGTBAS-0
 10
1298.4985527139
 20
756.3783508923
 30
0.0
  0
VERTEX
  5
6B5
  8
BGTBAS-0
 10
1300.0265981643
 20
752.8764502032
 30
0.0
  0
VERTEX
  5
6B6
  8
BGTBAS-0
 10
1301.5546436146
 20
751.8987633642
 30
0.0
  0
VERTEX
  5
6B7
  8
BGTBAS-0
 10
1302.2571374827
 20
752.6318644221
 30
0.0
  0
SEQEND
  5
A47
  8
BGTBAS-0
  0
ARC
  5
1A0
  8
BGTBAS-0
 10
1181.3558295229
 20
847.8080267924
 30
0.0
 40
114.2718348384706
 50
342.4310689561
 51
349.6872955073
  0
POLYLINE
  5
1A1
  8
BGTBAS-0
 66
     1
 10
0.0
 20
0.0
 30
0.0
 70
   128
  0
VERTEX
  5
6B8
  8
BGTBAS-0
 10
1053.7816448069
 20
827.3510403315
 30
0.0
  0
VERTEX
  5
6B9
  8
BGTBAS-0
 10
1055.4044644342
 20
811.8416830397
 30
0.0
  0
VERTEX
  5
6BA
  8
BGTBAS-0
 10
1056.9894356432
 20
797.6623160185
 30
0.0
  0
VERTEX
  5
6BB
  8
BGTBAS-0
 10
1058.644135737
 20
784.9262409436
 30
0.0
  0
VERTEX
  5
6BC
  8
BGTBAS-0
 10
1060.3046436146
 20
774.2094437129
 30
0.0
  0
VERTEX
  5
6BD
  8
BGTBAS-0
 10
1061.7765981643
 20
766.4988671757
 30
0.0
  0
VERTEX
  5
6BE
  8
BGTBAS-0
 10
1063.2485527139
 20
760.9194459409
 30
0.0
  0
VERTEX
  5
6BF
  8
BGTBAS-0
 10
1064.7765981643
 20
757.5802252349
 30
0.0
  0
VERTEX
  5
6C0
  8
BGTBAS-0
 10
1066.1267088885
 20
756.7565155299
 30
0.0
  0
SEQEND
  5
A48
  8
BGTBAS-0
  0
POLYLINE
  5
1A2
  8
BGTBAS-0
 66
     1
 10
0.0
 20
0.0
 30
0.0
 70
   128
  0
VERTEX
  5
6C1
  8
BGTBAS-0
 10
1050.2973962788
 20
813.3147336746
 30
0.0
  0
VERTEX
  5
6C2
  8
BGTBAS-0
 10
1051.566012292
 20
800.9829180069
 30
0.0
  0
VERTEX
  5
6C3
  8
BGTBAS-0
 10
1052.8755977616
 20
789.5186134928
 30
0.0
  0
VERTEX
  5
6C4
  8
BGTBAS-0
 10
1054.2178569242
 20
779.1936778779
 30
0.0
  0
VERTEX
  5
6C5
  8
BGTBAS-0
 10
1055.5546436146
 20
770.3158100942
 30
0.0
  0
VERTEX
  5
6C6
  8
BGTBAS-0
 10
1057.0265981643
 20
762.2295900847
 30
0.0
  0
VERTEX
  5
6C7
  8
BGTBAS-0
 10
1058.4985527139
 20
756.3783508923
 30
0.0
  0
VERTEX
  5
6C8
  8
BGTBAS-0
 10
1060.0265981643
 20
752.8764502032
 30
0.0
  0
VERTEX
  5
6C9
  8
BGTBAS-0
 10
1061.5546436146
 20
751.8987633642
 30
0.0
  0
VERTEX
  5
6CA
  8
BGTBAS-0
 10
1062.2571374827
 20
752.6318644221
 30
0.0
  0
SEQEND
  5
A49
  8
BGTBAS-0
  0
ARC
  5
1A3
  8
BGTBAS-0
 10
941.3558295227
 20
847.8080267924
 30
0.0
 40
114.2718348386416
 50
342.4310689561
 51
349.6872955073
  0
POLYLINE
  5
1A4
  8
BGTBAS-0
 66
     1
 10
0.0
 20
0.0
 30
0.0
 70
   128
  0
VERTEX
  5
6CB
  8
BGTBAS-0
 10
393.7816448069
 20
827.3510403315
 30
0.0
  0
VERTEX
  5
6CC
  8
BGTBAS-0
 10
395.4044644342
 20
811.8416830397
 30
0.0
  0
VERTEX
  5
6CD
  8
BGTBAS-0
 10
396.9894356432
 20
797.6623160185
 30
0.0
  0
VERTEX
  5
6CE
  8
BGTBAS-0
 10
398.644135737
 20
784.9262409436
 30
0.0
  0
VERTEX
  5
6CF
  8
BGTBAS-0
 10
400.3046436146
 20
774.2094437129
 30
0.0
  0
VERTEX
  5
6D0
  8
BGTBAS-0
 10
401.7765981643
 20
766.4988671757
 30
0.0
  0
VERTEX
  5
6D1
  8
BGTBAS-0
 10
403.2485527139
 20
760.9194459409
 30
0.0
  0
VERTEX
  5
6D2
  8
BGTBAS-0
 10
404.7765981643
 20
757.5802252349
 30
0.0
  0
VERTEX
  5
6D3
  8
BGTBAS-0
 10
406.1267088885
 20
756.7565155299
 30
0.0
  0
SEQEND
  5
A4A
  8
BGTBAS-0
  0
POLYLINE
  5
1A5
  8
BGTBAS-0
 66
     1
 10
0.0
 20
0.0
 30
0.0
 70
   128
  0
VERTEX
  5
6D4
  8
BGTBAS-0
 10
390.2973962788
 20
813.3147336746
 30
0.0
  0
VERTEX
  5
6D5
  8
BGTBAS-0
 10
391.566012292
 20
800.9829180069
 30
0.0
  0
VERTEX
  5
6D6
  8
BGTBAS-0
 10
392.8755977616
 20
789.5186134928
 30
0.0
  0
VERTEX
  5
6D7
  8
BGTBAS-0
 10
394.2178569242
 20
779.1936778779
 30
0.0
  0
VERTEX
  5
6D8
  8
BGTBAS-0
 10
395.5546436146
 20
770.3158100942
 30
0.0
  0
VERTEX
  5
6D9
  8
BGTBAS-0
 10
397.0265981643
 20
762.2295900847
 30
0.0
  0
VERTEX
  5
6DA
  8
BGTBAS-0
 10
398.4985527139
 20
756.3783508923
 30
0.0
  0
VERTEX
  5
6DB
  8
BGTBAS-0
 10
400.0265981643
 20
752.8764502032
 30
0.0
  0
VERTEX
  5
6DC
  8
BGTBAS-0
 10
401.5546436146
 20
751.8987633642
 30
0.0
  0
VERTEX
  5
6DD
  8
BGTBAS-0
 10
402.2571374827
 20
752.6318644221
 30
0.0
  0
SEQEND
  5
A4B
  8
BGTBAS-0
  0
ARC
  5
1A6
  8
BGTBAS-0
 10
281.3558295228
 20
847.8080267924
 30
0.0
 40
114.2718348385817
 50
342.4310689561
 51
349.6872955073
  0
POLYLINE
  5
1A7
  8
BGTBAS-0
 66
     1
 10
0.0
 20
0.0
 30
0.0
 70
   128
  0
VERTEX
  5
6DE
  8
BGTBAS-0
 10
513.7816448069
 20
827.3510403315
 30
0.0
  0
VERTEX
  5
6DF
  8
BGTBAS-0
 10
515.4044644342
 20
811.8416830397
 30
0.0
  0
VERTEX
  5
6E0
  8
BGTBAS-0
 10
516.9894356432
 20
797.6623160185
 30
0.0
  0
VERTEX
  5
6E1
  8
BGTBAS-0
 10
518.644135737
 20
784.9262409436
 30
0.0
  0
VERTEX
  5
6E2
  8
BGTBAS-0
 10
520.3046436146
 20
774.2094437129
 30
0.0
  0
VERTEX
  5
6E3
  8
BGTBAS-0
 10
521.7765981643
 20
766.4988671757
 30
0.0
  0
VERTEX
  5
6E4
  8
BGTBAS-0
 10
523.2485527139
 20
760.9194459409
 30
0.0
  0
VERTEX
  5
6E5
  8
BGTBAS-0
 10
524.7765981643
 20
757.5802252349
 30
0.0
  0
VERTEX
  5
6E6
  8
BGTBAS-0
 10
526.1267088885
 20
756.7565155299
 30
0.0
  0
SEQEND
  5
A4C
  8
BGTBAS-0
  0
POLYLINE
  5
1A8
  8
BGTBAS-0
 66
     1
 10
0.0
 20
0.0
 30
0.0
 70
   128
  0
VERTEX
  5
6E7
  8
BGTBAS-0
 10
510.2973962788
 20
813.3147336746
 30
0.0
  0
VERTEX
  5
6E8
  8
BGTBAS-0
 10
511.566012292
 20
800.9829180069
 30
0.0
  0
VERTEX
  5
6E9
  8
BGTBAS-0
 10
512.8755977616
 20
789.5186134928
 30
0.0
  0
VERTEX
  5
6EA
  8
BGTBAS-0
 10
514.2178569242
 20
779.1936778779
 30
0.0
  0
VERTEX
  5
6EB
  8
BGTBAS-0
 10
515.5546436146
 20
770.3158100942
 30
0.0
  0
VERTEX
  5
6EC
  8
BGTBAS-0
 10
517.0265981643
 20
762.2295900847
 30
0.0
  0
VERTEX
  5
6ED
  8
BGTBAS-0
 10
518.4985527139
 20
756.3783508923
 30
0.0
  0
VERTEX
  5
6EE
  8
BGTBAS-0
 10
520.0265981643
 20
752.8764502032
 30
0.0
  0
VERTEX
  5
6EF
  8
BGTBAS-0
 10
521.5546436146
 20
751.8987633642
 30
0.0
  0
VERTEX
  5
6F0
  8
BGTBAS-0
 10
522.2571374827
 20
752.6318644221
 30
0.0
  0
SEQEND
  5
A4D
  8
BGTBAS-0
  0
ARC
  5
1A9
  8
BGTBAS-0
 10
401.3558295227
 20
847.8080267924
 30
0.0
 40
114.2718348386136
 50
342.4310689561
 51
349.6872955073
  0
POLYLINE
  5
1AA
  8
BGTBAS-0
 66
     1
 10
0.0
 20
0.0
 30
0.0
 70
   128
  0
VERTEX
  5
6F1
  8
BGTBAS-0
 10
333.7816448069
 20
827.3510403315
 30
0.0
  0
VERTEX
  5
6F2
  8
BGTBAS-0
 10
335.4044644342
 20
811.8416830397
 30
0.0
  0
VERTEX
  5
6F3
  8
BGTBAS-0
 10
336.9894356432
 20
797.6623160185
 30
0.0
  0
VERTEX
  5
6F4
  8
BGTBAS-0
 10
338.644135737
 20
784.9262409436
 30
0.0
  0
VERTEX
  5
6F5
  8
BGTBAS-0
 10
340.3046436146
 20
774.2094437129
 30
0.0
  0
VERTEX
  5
6F6
  8
BGTBAS-0
 10
341.7765981643
 20
766.4988671757
 30
0.0
  0
VERTEX
  5
6F7
  8
BGTBAS-0
 10
343.2485527139
 20
760.9194459409
 30
0.0
  0
VERTEX
  5
6F8
  8
BGTBAS-0
 10
344.7765981643
 20
757.5802252349
 30
0.0
  0
VERTEX
  5
6F9
  8
BGTBAS-0
 10
346.1267088885
 20
756.7565155299
 30
0.0
  0
SEQEND
  5
A4E
  8
BGTBAS-0
  0
POLYLINE
  5
1AB
  8
BGTBAS-0
 66
     1
 10
0.0
 20
0.0
 30
0.0
 70
   128
  0
VERTEX
  5
6FA
  8
BGTBAS-0
 10
330.2973962788
 20
813.3147336746
 30
0.0
  0
VERTEX
  5
6FB
  8
BGTBAS-0
 10
331.566012292
 20
800.9829180069
 30
0.0
  0
VERTEX
  5
6FC
  8
BGTBAS-0
 10
332.8755977616
 20
789.5186134928
 30
0.0
  0
VERTEX
  5
6FD
  8
BGTBAS-0
 10
334.2178569242
 20
779.1936778779
 30
0.0
  0
VERTEX
  5
6FE
  8
BGTBAS-0
 10
335.5546436146
 20
770.3158100942
 30
0.0
  0
VERTEX
  5
6FF
  8
BGTBAS-0
 10
337.0265981643
 20
762.2295900847
 30
0.0
  0
VERTEX
  5
700
  8
BGTBAS-0
 10
338.4985527139
 20
756.3783508923
 30
0.0
  0
VERTEX
  5
701
  8
BGTBAS-0
 10
340.0265981643
 20
752.8764502032
 30
0.0
  0
VERTEX
  5
702
  8
BGTBAS-0
 10
341.5546436146
 20
751.8987633642
 30
0.0
  0
VERTEX
  5
703
  8
BGTBAS-0
 10
342.2571374827
 20
752.6318644221
 30
0.0
  0
SEQEND
  5
A4F
  8
BGTBAS-0
  0
ARC
  5
1AC
  8
BGTBAS-0
 10
221.3558295228
 20
847.8080267924
 30
0.0
 40
114.2718348385559
 50
342.4310689561
 51
349.6872955073
  0
POLYLINE
  5
1AD
  8
BGTBAS-0
 66
     1
 10
0.0
 20
0.0
 30
0.0
 70
   128
  0
VERTEX
  5
704
  8
BGTBAS-0
 10
273.7816448069
 20
827.3510403315
 30
0.0
  0
VERTEX
  5
705
  8
BGTBAS-0
 10
275.4044644342
 20
811.8416830397
 30
0.0
  0
VERTEX
  5
706
  8
BGTBAS-0
 10
276.9894356432
 20
797.6623160185
 30
0.0
  0
VERTEX
  5
707
  8
BGTBAS-0
 10
278.644135737
 20
784.9262409436
 30
0.0
  0
VERTEX
  5
708
  8
BGTBAS-0
 10
280.3046436146
 20
774.2094437129
 30
0.0
  0
VERTEX
  5
709
  8
BGTBAS-0
 10
281.7765981643
 20
766.4988671757
 30
0.0
  0
VERTEX
  5
70A
  8
BGTBAS-0
 10
283.2485527139
 20
760.9194459409
 30
0.0
  0
VERTEX
  5
70B
  8
BGTBAS-0
 10
284.7765981643
 20
757.5802252349
 30
0.0
  0
VERTEX
  5
70C
  8
BGTBAS-0
 10
286.1267088885
 20
756.7565155299
 30
0.0
  0
SEQEND
  5
A50
  8
BGTBAS-0
  0
POLYLINE
  5
1AE
  8
BGTBAS-0
 66
     1
 10
0.0
 20
0.0
 30
0.0
 70
   128
  0
VERTEX
  5
70D
  8
BGTBAS-0
 10
270.2973962788
 20
813.3147336746
 30
0.0
  0
VERTEX
  5
70E
  8
BGTBAS-0
 10
271.566012292
 20
800.9829180069
 30
0.0
  0
VERTEX
  5
70F
  8
BGTBAS-0
 10
272.8755977616
 20
789.5186134928
 30
0.0
  0
VERTEX
  5
710
  8
BGTBAS-0
 10
274.2178569242
 20
779.1936778779
 30
0.0
  0
VERTEX
  5
711
  8
BGTBAS-0
 10
275.5546436146
 20
770.3158100942
 30
0.0
  0
VERTEX
  5
712
  8
BGTBAS-0
 10
277.0265981643
 20
762.2295900847
 30
0.0
  0
VERTEX
  5
713
  8
BGTBAS-0
 10
278.4985527139
 20
756.3783508923
 30
0.0
  0
VERTEX
  5
714
  8
BGTBAS-0
 10
280.0265981643
 20
752.8764502032
 30
0.0
  0
VERTEX
  5
715
  8
BGTBAS-0
 10
281.5546436146
 20
751.8987633642
 30
0.0
  0
VERTEX
  5
716
  8
BGTBAS-0
 10
282.2571374827
 20
752.6318644221
 30
0.0
  0
SEQEND
  5
A51
  8
BGTBAS-0
  0
ARC
  5
1AF
  8
BGTBAS-0
 10
161.3558295228
 20
847.8080267924
 30
0.0
 40
114.2718348385842
 50
342.4310689561
 51
349.6872955073
  0
POLYLINE
  5
1B0
  8
BGTBAS-0
 66
     1
 10
0.0
 20
0.0
 30
0.0
 70
   128
  0
VERTEX
  5
717
  8
BGTBAS-0
 10
453.7816448069
 20
827.3510403315
 30
0.0
  0
VERTEX
  5
718
  8
BGTBAS-0
 10
455.4044644342
 20
811.8416830397
 30
0.0
  0
VERTEX
  5
719
  8
BGTBAS-0
 10
456.9894356432
 20
797.6623160185
 30
0.0
  0
VERTEX
  5
71A
  8
BGTBAS-0
 10
458.644135737
 20
784.9262409436
 30
0.0
  0
VERTEX
  5
71B
  8
BGTBAS-0
 10
460.3046436146
 20
774.2094437129
 30
0.0
  0
VERTEX
  5
71C
  8
BGTBAS-0
 10
461.7765981643
 20
766.4988671757
 30
0.0
  0
VERTEX
  5
71D
  8
BGTBAS-0
 10
463.2485527139
 20
760.9194459409
 30
0.0
  0
VERTEX
  5
71E
  8
BGTBAS-0
 10
464.7765981643
 20
757.5802252349
 30
0.0
  0
VERTEX
  5
71F
  8
BGTBAS-0
 10
466.1267088885
 20
756.7565155299
 30
0.0
  0
SEQEND
  5
A52
  8
BGTBAS-0
  0
POLYLINE
  5
1B1
  8
BGTBAS-0
 66
     1
 10
0.0
 20
0.0
 30
0.0
 70
   128
  0
VERTEX
  5
720
  8
BGTBAS-0
 10
450.2973962788
 20
813.3147336746
 30
0.0
  0
VERTEX
  5
721
  8
BGTBAS-0
 10
451.566012292
 20
800.9829180069
 30
0.0
  0
VERTEX
  5
722
  8
BGTBAS-0
 10
452.8755977616
 20
789.5186134928
 30
0.0
  0
VERTEX
  5
723
  8
BGTBAS-0
 10
454.2178569242
 20
779.1936778779
 30
0.0
  0
VERTEX
  5
724
  8
BGTBAS-0
 10
455.5546436146
 20
770.3158100942
 30
0.0
  0
VERTEX
  5
725
  8
BGTBAS-0
 10
457.0265981643
 20
762.2295900847
 30
0.0
  0
VERTEX
  5
726
  8
BGTBAS-0
 10
458.4985527139
 20
756.3783508923
 30
0.0
  0
VERTEX
  5
727
  8
BGTBAS-0
 10
460.0265981643
 20
752.8764502032
 30
0.0
  0
VERTEX
  5
728
  8
BGTBAS-0
 10
461.5546436146
 20
751.8987633642
 30
0.0
  0
VERTEX
  5
729
  8
BGTBAS-0
 10
462.2571374827
 20
752.6318644221
 30
0.0
  0
SEQEND
  5
A53
  8
BGTBAS-0
  0
ARC
  5
1B2
  8
BGTBAS-0
 10
341.3558295227
 20
847.8080267924
 30
0.0
 40
114.2718348386276
 50
342.4310689561
 51
349.6872955073
  0
POLYLINE
  5
1B3
  8
BGTBAS-0
 66
     1
 10
0.0
 20
0.0
 30
0.0
 70
   128
  0
VERTEX
  5
72A
  8
BGTBAS-0
 10
1413.7816448069
 20
827.3510403315
 30
0.0
  0
VERTEX
  5
72B
  8
BGTBAS-0
 10
1415.4044644342
 20
811.8416830397
 30
0.0
  0
VERTEX
  5
72C
  8
BGTBAS-0
 10
1416.9894356432
 20
797.6623160185
 30
0.0
  0
VERTEX
  5
72D
  8
BGTBAS-0
 10
1418.644135737
 20
784.9262409436
 30
0.0
  0
VERTEX
  5
72E
  8
BGTBAS-0
 10
1420.3046436146
 20
774.2094437129
 30
0.0
  0
VERTEX
  5
72F
  8
BGTBAS-0
 10
1421.7765981643
 20
766.4988671757
 30
0.0
  0
VERTEX
  5
730
  8
BGTBAS-0
 10
1423.2485527139
 20
760.9194459409
 30
0.0
  0
VERTEX
  5
731
  8
BGTBAS-0
 10
1424.7765981643
 20
757.5802252349
 30
0.0
  0
VERTEX
  5
732
  8
BGTBAS-0
 10
1426.1267088885
 20
756.7565155299
 30
0.0
  0
SEQEND
  5
A54
  8
BGTBAS-0
  0
POLYLINE
  5
1B4
  8
BGTBAS-0
 66
     1
 10
0.0
 20
0.0
 30
0.0
 70
   128
  0
VERTEX
  5
733
  8
BGTBAS-0
 10
1410.2973962788
 20
813.3147336746
 30
0.0
  0
VERTEX
  5
734
  8
BGTBAS-0
 10
1411.566012292
 20
800.9829180069
 30
0.0
  0
VERTEX
  5
735
  8
BGTBAS-0
 10
1412.8755977616
 20
789.5186134928
 30
0.0
  0
VERTEX
  5
736
  8
BGTBAS-0
 10
1414.2178569242
 20
779.1936778779
 30
0.0
  0
VERTEX
  5
737
  8
BGTBAS-0
 10
1415.5546436146
 20
770.3158100942
 30
0.0
  0
VERTEX
  5
738
  8
BGTBAS-0
 10
1417.0265981643
 20
762.2295900847
 30
0.0
  0
VERTEX
  5
739
  8
BGTBAS-0
 10
1418.4985527139
 20
756.3783508923
 30
0.0
  0
VERTEX
  5
73A
  8
BGTBAS-0
 10
1420.0265981643
 20
752.8764502032
 30
0.0
  0
VERTEX
  5
73B
  8
BGTBAS-0
 10
1421.5546436146
 20
751.8987633642
 30
0.0
  0
VERTEX
  5
73C
  8
BGTBAS-0
 10
1422.2571374827
 20
752.6318644221
 30
0.0
  0
SEQEND
  5
A55
  8
BGTBAS-0
  0
ARC
  5
1B5
  8
BGTBAS-0
 10
1301.3558295228
 20
847.8080267924
 30
0.0
 40
114.2718348385819
 50
342.4310689561
 51
349.6872955073
  0
POLYLINE
  5
1B6
  8
BGTBAS-0
 66
     1
 10
0.0
 20
0.0
 30
0.0
 70
   128
  0
VERTEX
  5
73D
  8
BGTBAS-0
 10
573.7816448069
 20
827.3510403315
 30
0.0
  0
VERTEX
  5
73E
  8
BGTBAS-0
 10
575.4044644342
 20
811.8416830397
 30
0.0
  0
VERTEX
  5
73F
  8
BGTBAS-0
 10
576.9894356432
 20
797.6623160185
 30
0.0
  0
VERTEX
  5
740
  8
BGTBAS-0
 10
578.644135737
 20
784.9262409436
 30
0.0
  0
VERTEX
  5
741
  8
BGTBAS-0
 10
580.3046436146
 20
774.2094437129
 30
0.0
  0
VERTEX
  5
742
  8
BGTBAS-0
 10
581.7765981643
 20
766.4988671757
 30
0.0
  0
VERTEX
  5
743
  8
BGTBAS-0
 10
583.2485527139
 20
760.9194459409
 30
0.0
  0
VERTEX
  5
744
  8
BGTBAS-0
 10
584.7765981643
 20
757.5802252349
 30
0.0
  0
VERTEX
  5
745
  8
BGTBAS-0
 10
586.1267088885
 20
756.7565155299
 30
0.0
  0
SEQEND
  5
A56
  8
BGTBAS-0
  0
POLYLINE
  5
1B7
  8
BGTBAS-0
 66
     1
 10
0.0
 20
0.0
 30
0.0
 70
   128
  0
VERTEX
  5
746
  8
BGTBAS-0
 10
570.2973962788
 20
813.3147336746
 30
0.0
  0
VERTEX
  5
747
  8
BGTBAS-0
 10
571.566012292
 20
800.9829180069
 30
0.0
  0
VERTEX
  5
748
  8
BGTBAS-0
 10
572.8755977616
 20
789.5186134928
 30
0.0
  0
VERTEX
  5
749
  8
BGTBAS-0
 10
574.2178569242
 20
779.1936778779
 30
0.0
  0
VERTEX
  5
74A
  8
BGTBAS-0
 10
575.5546436146
 20
770.3158100942
 30
0.0
  0
VERTEX
  5
74B
  8
BGTBAS-0
 10
577.0265981643
 20
762.2295900847
 30
0.0
  0
VERTEX
  5
74C
  8
BGTBAS-0
 10
578.4985527139
 20
756.3783508923
 30
0.0
  0
VERTEX
  5
74D
  8
BGTBAS-0
 10
580.0265981643
 20
752.8764502032
 30
0.0
  0
VERTEX
  5
74E
  8
BGTBAS-0
 10
581.5546436146
 20
751.8987633642
 30
0.0
  0
VERTEX
  5
74F
  8
BGTBAS-0
 10
582.2571374827
 20
752.6318644221
 30
0.0
  0
SEQEND
  5
A57
  8
BGTBAS-0
  0
ARC
  5
1B8
  8
BGTBAS-0
 10
461.3558295227
 20
847.8080267924
 30
0.0
 40
114.271834838595
 50
342.4310689561
 51
349.6872955073
  0
POLYLINE
  5
1B9
  8
BGTBAS-0
 66
     1
 10
0.0
 20
0.0
 30
0.0
 70
   128
  0
VERTEX
  5
750
  8
BGTBAS-0
 10
873.7816448069
 20
827.3510403315
 30
0.0
  0
VERTEX
  5
751
  8
BGTBAS-0
 10
875.4044644342
 20
811.8416830397
 30
0.0
  0
VERTEX
  5
752
  8
BGTBAS-0
 10
876.9894356432
 20
797.6623160185
 30
0.0
  0
VERTEX
  5
753
  8
BGTBAS-0
 10
878.644135737
 20
784.9262409436
 30
0.0
  0
VERTEX
  5
754
  8
BGTBAS-0
 10
880.3046436146
 20
774.2094437129
 30
0.0
  0
VERTEX
  5
755
  8
BGTBAS-0
 10
881.7765981643
 20
766.4988671757
 30
0.0
  0
VERTEX
  5
756
  8
BGTBAS-0
 10
883.2485527139
 20
760.9194459409
 30
0.0
  0
VERTEX
  5
757
  8
BGTBAS-0
 10
884.7765981643
 20
757.5802252349
 30
0.0
  0
VERTEX
  5
758
  8
BGTBAS-0
 10
886.1267088885
 20
756.7565155299
 30
0.0
  0
SEQEND
  5
A58
  8
BGTBAS-0
  0
POLYLINE
  5
1BA
  8
BGTBAS-0
 66
     1
 10
0.0
 20
0.0
 30
0.0
 70
   128
  0
VERTEX
  5
759
  8
BGTBAS-0
 10
870.2973962788
 20
813.3147336746
 30
0.0
  0
VERTEX
  5
75A
  8
BGTBAS-0
 10
871.566012292
 20
800.9829180069
 30
0.0
  0
VERTEX
  5
75B
  8
BGTBAS-0
 10
872.8755977616
 20
789.5186134928
 30
0.0
  0
VERTEX
  5
75C
  8
BGTBAS-0
 10
874.2178569242
 20
779.1936778779
 30
0.0
  0
VERTEX
  5
75D
  8
BGTBAS-0
 10
875.5546436146
 20
770.3158100942
 30
0.0
  0
VERTEX
  5
75E
  8
BGTBAS-0
 10
877.0265981643
 20
762.2295900847
 30
0.0
  0
VERTEX
  5
75F
  8
BGTBAS-0
 10
878.4985527139
 20
756.3783508923
 30
0.0
  0
VERTEX
  5
760
  8
BGTBAS-0
 10
880.0265981643
 20
752.8764502032
 30
0.0
  0
VERTEX
  5
761
  8
BGTBAS-0
 10
881.5546436146
 20
751.8987633642
 30
0.0
  0
VERTEX
  5
762
  8
BGTBAS-0
 10
882.2571374827
 20
752.6318644221
 30
0.0
  0
SEQEND
  5
A59
  8
BGTBAS-0
  0
ARC
  5
1BB
  8
BGTBAS-0
 10
761.3558295228
 20
847.8080267924
 30
0.0
 40
114.2718348385404
 50
342.4310689561
 51
349.6872955073
  0
POLYLINE
  5
1BC
  8
BGTBAS-0
 66
     1
 10
0.0
 20
0.0
 30
0.0
 70
   128
  0
VERTEX
  5
763
  8
BGTBAS-0
 10
813.7816448069
 20
827.3510403315
 30
0.0
  0
VERTEX
  5
764
  8
BGTBAS-0
 10
815.4044644342
 20
811.8416830397
 30
0.0
  0
VERTEX
  5
765
  8
BGTBAS-0
 10
816.9894356432
 20
797.6623160185
 30
0.0
  0
VERTEX
  5
766
  8
BGTBAS-0
 10
818.644135737
 20
784.9262409436
 30
0.0
  0
VERTEX
  5
767
  8
BGTBAS-0
 10
820.3046436146
 20
774.2094437129
 30
0.0
  0
VERTEX
  5
768
  8
BGTBAS-0
 10
821.7765981643
 20
766.4988671757
 30
0.0
  0
VERTEX
  5
769
  8
BGTBAS-0
 10
823.2485527139
 20
760.9194459409
 30
0.0
  0
VERTEX
  5
76A
  8
BGTBAS-0
 10
824.7765981643
 20
757.5802252349
 30
0.0
  0
VERTEX
  5
76B
  8
BGTBAS-0
 10
826.1267088885
 20
756.7565155299
 30
0.0
  0
SEQEND
  5
A5A
  8
BGTBAS-0
  0
POLYLINE
  5
1BD
  8
BGTBAS-0
 66
     1
 10
0.0
 20
0.0
 30
0.0
 70
   128
  0
VERTEX
  5
76C
  8
BGTBAS-0
 10
810.2973962788
 20
813.3147336746
 30
0.0
  0
VERTEX
  5
76D
  8
BGTBAS-0
 10
811.566012292
 20
800.9829180069
 30
0.0
  0
VERTEX
  5
76E
  8
BGTBAS-0
 10
812.8755977616
 20
789.5186134928
 30
0.0
  0
VERTEX
  5
76F
  8
BGTBAS-0
 10
814.2178569242
 20
779.1936778779
 30
0.0
  0
VERTEX
  5
770
  8
BGTBAS-0
 10
815.5546436146
 20
770.3158100942
 30
0.0
  0
VERTEX
  5
771
  8
BGTBAS-0
 10
817.0265981643
 20
762.2295900847
 30
0.0
  0
VERTEX
  5
772
  8
BGTBAS-0
 10
818.4985527139
 20
756.3783508923
 30
0.0
  0
VERTEX
  5
773
  8
BGTBAS-0
 10
820.0265981643
 20
752.8764502032
 30
0.0
  0
VERTEX
  5
774
  8
BGTBAS-0
 10
821.5546436146
 20
751.8987633642
 30
0.0
  0
VERTEX
  5
775
  8
BGTBAS-0
 10
822.2571374827
 20
752.6318644221
 30
0.0
  0
SEQEND
  5
A5B
  8
BGTBAS-0
  0
ARC
  5
1BE
  8
BGTBAS-0
 10
701.3558295227
 20
847.8080267924
 30
0.0
 40
114.2718348386175
 50
342.4310689561
 51
349.6872955073
  0
POLYLINE
  5
1BF
  8
BGTBAS-0
 66
     1
 10
0.0
 20
0.0
 30
0.0
 70
   128
  0
VERTEX
  5
776
  8
BGTBAS-0
 10
1353.7816448069
 20
827.3510403315
 30
0.0
  0
VERTEX
  5
777
  8
BGTBAS-0
 10
1355.4044644342
 20
811.8416830397
 30
0.0
  0
VERTEX
  5
778
  8
BGTBAS-0
 10
1356.9894356432
 20
797.6623160185
 30
0.0
  0
VERTEX
  5
779
  8
BGTBAS-0
 10
1358.644135737
 20
784.9262409436
 30
0.0
  0
VERTEX
  5
77A
  8
BGTBAS-0
 10
1360.3046436146
 20
774.2094437129
 30
0.0
  0
VERTEX
  5
77B
  8
BGTBAS-0
 10
1361.7765981643
 20
766.4988671757
 30
0.0
  0
VERTEX
  5
77C
  8
BGTBAS-0
 10
1363.2485527139
 20
760.9194459409
 30
0.0
  0
VERTEX
  5
77D
  8
BGTBAS-0
 10
1364.7765981643
 20
757.5802252349
 30
0.0
  0
VERTEX
  5
77E
  8
BGTBAS-0
 10
1366.1267088885
 20
756.7565155299
 30
0.0
  0
SEQEND
  5
A5C
  8
BGTBAS-0
  0
POLYLINE
  5
1C0
  8
BGTBAS-0
 66
     1
 10
0.0
 20
0.0
 30
0.0
 70
   128
  0
VERTEX
  5
77F
  8
BGTBAS-0
 10
1350.2973962788
 20
813.3147336746
 30
0.0
  0
VERTEX
  5
780
  8
BGTBAS-0
 10
1351.566012292
 20
800.9829180069
 30
0.0
  0
VERTEX
  5
781
  8
BGTBAS-0
 10
1352.8755977616
 20
789.5186134928
 30
0.0
  0
VERTEX
  5
782
  8
BGTBAS-0
 10
1354.2178569242
 20
779.1936778779
 30
0.0
  0
VERTEX
  5
783
  8
BGTBAS-0
 10
1355.5546436146
 20
770.3158100942
 30
0.0
  0
VERTEX
  5
784
  8
BGTBAS-0
 10
1357.0265981643
 20
762.2295900847
 30
0.0
  0
VERTEX
  5
785
  8
BGTBAS-0
 10
1358.4985527139
 20
756.3783508923
 30
0.0
  0
VERTEX
  5
786
  8
BGTBAS-0
 10
1360.0265981643
 20
752.8764502032
 30
0.0
  0
VERTEX
  5
787
  8
BGTBAS-0
 10
1361.5546436146
 20
751.8987633642
 30
0.0
  0
VERTEX
  5
788
  8
BGTBAS-0
 10
1362.2571374827
 20
752.6318644221
 30
0.0
  0
SEQEND
  5
A5D
  8
BGTBAS-0
  0
ARC
  5
1C1
  8
BGTBAS-0
 10
1241.3558295227
 20
847.8080267924
 30
0.0
 40
114.271834838607
 50
342.4310689561
 51
349.6872955073
  0
POLYLINE
  5
1C2
  8
BGTBAS-0
 66
     1
 10
0.0
 20
0.0
 30
0.0
 70
   128
  0
VERTEX
  5
789
  8
BGTBAS-0
 10
933.7816448069
 20
827.3510403315
 30
0.0
  0
VERTEX
  5
78A
  8
BGTBAS-0
 10
935.4044644342
 20
811.8416830397
 30
0.0
  0
VERTEX
  5
78B
  8
BGTBAS-0
 10
936.9894356432
 20
797.6623160185
 30
0.0
  0
VERTEX
  5
78C
  8
BGTBAS-0
 10
938.644135737
 20
784.9262409436
 30
0.0
  0
VERTEX
  5
78D
  8
BGTBAS-0
 10
940.3046436146
 20
774.2094437129
 30
0.0
  0
VERTEX
  5
78E
  8
BGTBAS-0
 10
941.7765981643
 20
766.4988671757
 30
0.0
  0
VERTEX
  5
78F
  8
BGTBAS-0
 10
943.2485527139
 20
760.9194459409
 30
0.0
  0
VERTEX
  5
790
  8
BGTBAS-0
 10
944.7765981643
 20
757.5802252349
 30
0.0
  0
VERTEX
  5
791
  8
BGTBAS-0
 10
946.1267088885
 20
756.7565155299
 30
0.0
  0
SEQEND
  5
A5E
  8
BGTBAS-0
  0
POLYLINE
  5
1C3
  8
BGTBAS-0
 66
     1
 10
0.0
 20
0.0
 30
0.0
 70
   128
  0
VERTEX
  5
792
  8
BGTBAS-0
 10
930.2973962788
 20
813.3147336746
 30
0.0
  0
VERTEX
  5
793
  8
BGTBAS-0
 10
931.566012292
 20
800.9829180069
 30
0.0
  0
VERTEX
  5
794
  8
BGTBAS-0
 10
932.8755977616
 20
789.5186134928
 30
0.0
  0
VERTEX
  5
795
  8
BGTBAS-0
 10
934.2178569242
 20
779.1936778779
 30
0.0
  0
VERTEX
  5
796
  8
BGTBAS-0
 10
935.5546436146
 20
770.3158100942
 30
0.0
  0
VERTEX
  5
797
  8
BGTBAS-0
 10
937.0265981643
 20
762.2295900847
 30
0.0
  0
VERTEX
  5
798
  8
BGTBAS-0
 10
938.4985527139
 20
756.3783508923
 30
0.0
  0
VERTEX
  5
799
  8
BGTBAS-0
 10
940.0265981643
 20
752.8764502032
 30
0.0
  0
VERTEX
  5
79A
  8
BGTBAS-0
 10
941.5546436146
 20
751.8987633642
 30
0.0
  0
VERTEX
  5
79B
  8
BGTBAS-0
 10
942.2571374827
 20
752.6318644221
 30
0.0
  0
SEQEND
  5
A5F
  8
BGTBAS-0
  0
ARC
  5
1C4
  8
BGTBAS-0
 10
821.3558295227
 20
847.8080267924
 30
0.0
 40
114.271834838623
 50
342.4310689561
 51
349.6872955073
  0
POLYLINE
  5
1C5
  8
BGTBAS-0
 66
     1
 10
0.0
 20
0.0
 30
0.0
 70
   128
  0
VERTEX
  5
79C
  8
BGTBAS-0
 10
633.7816448069
 20
827.3510403315
 30
0.0
  0
VERTEX
  5
79D
  8
BGTBAS-0
 10
635.4044644342
 20
811.8416830397
 30
0.0
  0
VERTEX
  5
79E
  8
BGTBAS-0
 10
636.9894356432
 20
797.6623160185
 30
0.0
  0
VERTEX
  5
79F
  8
BGTBAS-0
 10
638.644135737
 20
784.9262409436
 30
0.0
  0
VERTEX
  5
7A0
  8
BGTBAS-0
 10
640.3046436146
 20
774.2094437129
 30
0.0
  0
VERTEX
  5
7A1
  8
BGTBAS-0
 10
641.7765981643
 20
766.4988671757
 30
0.0
  0
VERTEX
  5
7A2
  8
BGTBAS-0
 10
643.2485527139
 20
760.9194459409
 30
0.0
  0
VERTEX
  5
7A3
  8
BGTBAS-0
 10
644.7765981643
 20
757.5802252349
 30
0.0
  0
VERTEX
  5
7A4
  8
BGTBAS-0
 10
646.1267088885
 20
756.7565155299
 30
0.0
  0
SEQEND
  5
A60
  8
BGTBAS-0
  0
POLYLINE
  5
1C6
  8
BGTBAS-0
 66
     1
 10
0.0
 20
0.0
 30
0.0
 70
   128
  0
VERTEX
  5
7A5
  8
BGTBAS-0
 10
630.2973962788
 20
813.3147336746
 30
0.0
  0
VERTEX
  5
7A6
  8
BGTBAS-0
 10
631.566012292
 20
800.9829180069
 30
0.0
  0
VERTEX
  5
7A7
  8
BGTBAS-0
 10
632.8755977616
 20
789.5186134928
 30
0.0
  0
VERTEX
  5
7A8
  8
BGTBAS-0
 10
634.2178569242
 20
779.1936778779
 30
0.0
  0
VERTEX
  5
7A9
  8
BGTBAS-0
 10
635.5546436146
 20
770.3158100942
 30
0.0
  0
VERTEX
  5
7AA
  8
BGTBAS-0
 10
637.0265981643
 20
762.2295900847
 30
0.0
  0
VERTEX
  5
7AB
  8
BGTBAS-0
 10
638.4985527139
 20
756.3783508923
 30
0.0
  0
VERTEX
  5
7AC
  8
BGTBAS-0
 10
640.0265981643
 20
752.8764502032
 30
0.0
  0
VERTEX
  5
7AD
  8
BGTBAS-0
 10
641.5546436146
 20
751.8987633642
 30
0.0
  0
VERTEX
  5
7AE
  8
BGTBAS-0
 10
642.2571374827
 20
752.6318644221
 30
0.0
  0
SEQEND
  5
A61
  8
BGTBAS-0
  0
ARC
  5
1C7
  8
BGTBAS-0
 10
521.3558295227
 20
847.8080267924
 30
0.0
 40
114.2718348386091
 50
342.4310689561
 51
349.6872955073
  0
POLYLINE
  5
1C8
  8
BGTBAS-0
 66
     1
 10
0.0
 20
0.0
 30
0.0
 70
   128
  0
VERTEX
  5
7AF
  8
BGTBAS-0
 10
1173.7816448069
 20
827.3510403315
 30
0.0
  0
VERTEX
  5
7B0
  8
BGTBAS-0
 10
1175.4044644342
 20
811.8416830397
 30
0.0
  0
VERTEX
  5
7B1
  8
BGTBAS-0
 10
1176.9894356432
 20
797.6623160185
 30
0.0
  0
VERTEX
  5
7B2
  8
BGTBAS-0
 10
1178.644135737
 20
784.9262409436
 30
0.0
  0
VERTEX
  5
7B3
  8
BGTBAS-0
 10
1180.3046436146
 20
774.2094437129
 30
0.0
  0
VERTEX
  5
7B4
  8
BGTBAS-0
 10
1181.7765981643
 20
766.4988671757
 30
0.0
  0
VERTEX
  5
7B5
  8
BGTBAS-0
 10
1183.2485527139
 20
760.9194459409
 30
0.0
  0
VERTEX
  5
7B6
  8
BGTBAS-0
 10
1184.7765981643
 20
757.5802252349
 30
0.0
  0
VERTEX
  5
7B7
  8
BGTBAS-0
 10
1186.1267088885
 20
756.7565155299
 30
0.0
  0
SEQEND
  5
A62
  8
BGTBAS-0
  0
POLYLINE
  5
1C9
  8
BGTBAS-0
 66
     1
 10
0.0
 20
0.0
 30
0.0
 70
   128
  0
VERTEX
  5
7B8
  8
BGTBAS-0
 10
1170.2973962788
 20
813.3147336746
 30
0.0
  0
VERTEX
  5
7B9
  8
BGTBAS-0
 10
1171.566012292
 20
800.9829180069
 30
0.0
  0
VERTEX
  5
7BA
  8
BGTBAS-0
 10
1172.8755977616
 20
789.5186134928
 30
0.0
  0
VERTEX
  5
7BB
  8
BGTBAS-0
 10
1174.2178569242
 20
779.1936778779
 30
0.0
  0
VERTEX
  5
7BC
  8
BGTBAS-0
 10
1175.5546436146
 20
770.3158100942
 30
0.0
  0
VERTEX
  5
7BD
  8
BGTBAS-0
 10
1177.0265981643
 20
762.2295900847
 30
0.0
  0
VERTEX
  5
7BE
  8
BGTBAS-0
 10
1178.4985527139
 20
756.3783508923
 30
0.0
  0
VERTEX
  5
7BF
  8
BGTBAS-0
 10
1180.0265981643
 20
752.8764502032
 30
0.0
  0
VERTEX
  5
7C0
  8
BGTBAS-0
 10
1181.5546436146
 20
751.8987633642
 30
0.0
  0
VERTEX
  5
7C1
  8
BGTBAS-0
 10
1182.2571374827
 20
752.6318644221
 30
0.0
  0
SEQEND
  5
A63
  8
BGTBAS-0
  0
ARC
  5
1CA
  8
BGTBAS-0
 10
1061.3558295227
 20
847.8080267924
 30
0.0
 40
114.2718348386616
 50
342.4310689561
 51
349.6872955073
  0
POLYLINE
  5
1CB
  8
BGTBAS-0
 66
     1
 10
0.0
 20
0.0
 30
0.0
 70
   128
  0
VERTEX
  5
7C2
  8
BGTBAS-0
 10
993.7816448069
 20
827.3510403315
 30
0.0
  0
VERTEX
  5
7C3
  8
BGTBAS-0
 10
995.4044644342
 20
811.8416830397
 30
0.0
  0
VERTEX
  5
7C4
  8
BGTBAS-0
 10
996.9894356432
 20
797.6623160185
 30
0.0
  0
VERTEX
  5
7C5
  8
BGTBAS-0
 10
998.644135737
 20
784.9262409436
 30
0.0
  0
VERTEX
  5
7C6
  8
BGTBAS-0
 10
1000.3046436146
 20
774.2094437129
 30
0.0
  0
VERTEX
  5
7C7
  8
BGTBAS-0
 10
1001.7765981643
 20
766.4988671757
 30
0.0
  0
VERTEX
  5
7C8
  8
BGTBAS-0
 10
1003.2485527139
 20
760.9194459409
 30
0.0
  0
VERTEX
  5
7C9
  8
BGTBAS-0
 10
1004.7765981643
 20
757.5802252349
 30
0.0
  0
VERTEX
  5
7CA
  8
BGTBAS-0
 10
1006.1267088885
 20
756.7565155299
 30
0.0
  0
SEQEND
  5
A64
  8
BGTBAS-0
  0
POLYLINE
  5
1CC
  8
BGTBAS-0
 66
     1
 10
0.0
 20
0.0
 30
0.0
 70
   128
  0
VERTEX
  5
7CB
  8
BGTBAS-0
 10
990.2973962788
 20
813.3147336746
 30
0.0
  0
VERTEX
  5
7CC
  8
BGTBAS-0
 10
991.566012292
 20
800.9829180069
 30
0.0
  0
VERTEX
  5
7CD
  8
BGTBAS-0
 10
992.8755977616
 20
789.5186134928
 30
0.0
  0
VERTEX
  5
7CE
  8
BGTBAS-0
 10
994.2178569242
 20
779.1936778779
 30
0.0
  0
VERTEX
  5
7CF
  8
BGTBAS-0
 10
995.5546436146
 20
770.3158100942
 30
0.0
  0
VERTEX
  5
7D0
  8
BGTBAS-0
 10
997.0265981643
 20
762.2295900847
 30
0.0
  0
VERTEX
  5
7D1
  8
BGTBAS-0
 10
998.4985527139
 20
756.3783508923
 30
0.0
  0
VERTEX
  5
7D2
  8
BGTBAS-0
 10
1000.0265981643
 20
752.8764502032
 30
0.0
  0
VERTEX
  5
7D3
  8
BGTBAS-0
 10
1001.5546436146
 20
751.8987633642
 30
0.0
  0
VERTEX
  5
7D4
  8
BGTBAS-0
 10
1002.2571374827
 20
752.6318644221
 30
0.0
  0
SEQEND
  5
A65
  8
BGTBAS-0
  0
ARC
  5
1CD
  8
BGTBAS-0
 10
881.3558295227
 20
847.8080267924
 30
0.0
 40
114.2718348385945
 50
342.4310689561
 51
349.6872955073
  0
POLYLINE
  5
1CE
  8
BGTBAS-0
 66
     1
 10
0.0
 20
0.0
 30
0.0
 70
   128
  0
VERTEX
  5
7D5
  8
BGTBAS-0
 10
1113.7816448069
 20
827.3510403315
 30
0.0
  0
VERTEX
  5
7D6
  8
BGTBAS-0
 10
1115.4044644342
 20
811.8416830397
 30
0.0
  0
VERTEX
  5
7D7
  8
BGTBAS-0
 10
1116.9894356432
 20
797.6623160185
 30
0.0
  0
VERTEX
  5
7D8
  8
BGTBAS-0
 10
1118.644135737
 20
784.9262409436
 30
0.0
  0
VERTEX
  5
7D9
  8
BGTBAS-0
 10
1120.3046436146
 20
774.2094437129
 30
0.0
  0
VERTEX
  5
7DA
  8
BGTBAS-0
 10
1121.7765981643
 20
766.4988671757
 30
0.0
  0
VERTEX
  5
7DB
  8
BGTBAS-0
 10
1123.2485527139
 20
760.9194459409
 30
0.0
  0
VERTEX
  5
7DC
  8
BGTBAS-0
 10
1124.7765981643
 20
757.5802252349
 30
0.0
  0
VERTEX
  5
7DD
  8
BGTBAS-0
 10
1126.1267088885
 20
756.7565155299
 30
0.0
  0
SEQEND
  5
A66
  8
BGTBAS-0
  0
POLYLINE
  5
1CF
  8
BGTBAS-0
 66
     1
 10
0.0
 20
0.0
 30
0.0
 70
   128
  0
VERTEX
  5
7DE
  8
BGTBAS-0
 10
1110.2973962788
 20
813.3147336746
 30
0.0
  0
VERTEX
  5
7DF
  8
BGTBAS-0
 10
1111.566012292
 20
800.9829180069
 30
0.0
  0
VERTEX
  5
7E0
  8
BGTBAS-0
 10
1112.8755977616
 20
789.5186134928
 30
0.0
  0
VERTEX
  5
7E1
  8
BGTBAS-0
 10
1114.2178569242
 20
779.1936778779
 30
0.0
  0
VERTEX
  5
7E2
  8
BGTBAS-0
 10
1115.5546436146
 20
770.3158100942
 30
0.0
  0
VERTEX
  5
7E3
  8
BGTBAS-0
 10
1117.0265981643
 20
762.2295900847
 30
0.0
  0
VERTEX
  5
7E4
  8
BGTBAS-0
 10
1118.4985527139
 20
756.3783508923
 30
0.0
  0
VERTEX
  5
7E5
  8
BGTBAS-0
 10
1120.0265981643
 20
752.8764502032
 30
0.0
  0
VERTEX
  5
7E6
  8
BGTBAS-0
 10
1121.5546436146
 20
751.8987633642
 30
0.0
  0
VERTEX
  5
7E7
  8
BGTBAS-0
 10
1122.2571374827
 20
752.6318644221
 30
0.0
  0
SEQEND
  5
A67
  8
BGTBAS-0
  0
ARC
  5
1D0
  8
BGTBAS-0
 10
1001.3558295228
 20
847.8080267924
 30
0.0
 40
114.2718348385845
 50
342.4310689561
 51
349.6872955073
  0
POLYLINE
  5
1D1
  8
BGTBAS-0
 66
     1
 10
0.0
 20
0.0
 30
0.0
 70
   128
  0
VERTEX
  5
7E8
  8
BGTBAS-0
 10
753.7816448069
 20
827.3510403315
 30
0.0
  0
VERTEX
  5
7E9
  8
BGTBAS-0
 10
755.4044644342
 20
811.8416830397
 30
0.0
  0
VERTEX
  5
7EA
  8
BGTBAS-0
 10
756.9894356432
 20
797.6623160185
 30
0.0
  0
VERTEX
  5
7EB
  8
BGTBAS-0
 10
758.644135737
 20
784.9262409436
 30
0.0
  0
VERTEX
  5
7EC
  8
BGTBAS-0
 10
760.3046436146
 20
774.2094437129
 30
0.0
  0
VERTEX
  5
7ED
  8
BGTBAS-0
 10
761.7765981643
 20
766.4988671757
 30
0.0
  0
VERTEX
  5
7EE
  8
BGTBAS-0
 10
763.2485527139
 20
760.9194459409
 30
0.0
  0
VERTEX
  5
7EF
  8
BGTBAS-0
 10
764.7765981643
 20
757.5802252349
 30
0.0
  0
VERTEX
  5
7F0
  8
BGTBAS-0
 10
766.1267088885
 20
756.7565155299
 30
0.0
  0
SEQEND
  5
A68
  8
BGTBAS-0
  0
POLYLINE
  5
1D2
  8
BGTBAS-0
 66
     1
 10
0.0
 20
0.0
 30
0.0
 70
   128
  0
VERTEX
  5
7F1
  8
BGTBAS-0
 10
750.2973962788
 20
813.3147336746
 30
0.0
  0
VERTEX
  5
7F2
  8
BGTBAS-0
 10
751.566012292
 20
800.9829180069
 30
0.0
  0
VERTEX
  5
7F3
  8
BGTBAS-0
 10
752.8755977616
 20
789.5186134928
 30
0.0
  0
VERTEX
  5
7F4
  8
BGTBAS-0
 10
754.2178569242
 20
779.1936778779
 30
0.0
  0
VERTEX
  5
7F5
  8
BGTBAS-0
 10
755.5546436146
 20
770.3158100942
 30
0.0
  0
VERTEX
  5
7F6
  8
BGTBAS-0
 10
757.0265981643
 20
762.2295900847
 30
0.0
  0
VERTEX
  5
7F7
  8
BGTBAS-0
 10
758.4985527139
 20
756.3783508923
 30
0.0
  0
VERTEX
  5
7F8
  8
BGTBAS-0
 10
760.0265981643
 20
752.8764502032
 30
0.0
  0
VERTEX
  5
7F9
  8
BGTBAS-0
 10
761.5546436146
 20
751.8987633642
 30
0.0
  0
VERTEX
  5
7FA
  8
BGTBAS-0
 10
762.2571374827
 20
752.6318644221
 30
0.0
  0
SEQEND
  5
A69
  8
BGTBAS-0
  0
ARC
  5
1D3
  8
BGTBAS-0
 10
641.3558295227
 20
847.8080267924
 30
0.0
 40
114.2718348386379
 50
342.4310689561
 51
349.6872955073
  0
POLYLINE
  5
1D4
  8
BGTBAS-0
 66
     1
 10
0.0
 20
0.0
 30
0.0
 70
   128
  0
VERTEX
  5
7FB
  8
BGTBAS-0
 10
693.7816448069
 20
827.3510403315
 30
0.0
  0
VERTEX
  5
7FC
  8
BGTBAS-0
 10
695.4044644342
 20
811.8416830397
 30
0.0
  0
VERTEX
  5
7FD
  8
BGTBAS-0
 10
696.9894356432
 20
797.6623160185
 30
0.0
  0
VERTEX
  5
7FE
  8
BGTBAS-0
 10
698.644135737
 20
784.9262409436
 30
0.0
  0
VERTEX
  5
7FF
  8
BGTBAS-0
 10
700.3046436146
 20
774.2094437129
 30
0.0
  0
VERTEX
  5
800
  8
BGTBAS-0
 10
701.7765981643
 20
766.4988671757
 30
0.0
  0
VERTEX
  5
801
  8
BGTBAS-0
 10
703.2485527139
 20
760.9194459409
 30
0.0
  0
VERTEX
  5
802
  8
BGTBAS-0
 10
704.7765981643
 20
757.5802252349
 30
0.0
  0
VERTEX
  5
803
  8
BGTBAS-0
 10
706.1267088885
 20
756.7565155299
 30
0.0
  0
SEQEND
  5
A6A
  8
BGTBAS-0
  0
POLYLINE
  5
1D5
  8
BGTBAS-0
 66
     1
 10
0.0
 20
0.0
 30
0.0
 70
   128
  0
VERTEX
  5
804
  8
BGTBAS-0
 10
690.2973962788
 20
813.3147336746
 30
0.0
  0
VERTEX
  5
805
  8
BGTBAS-0
 10
691.566012292
 20
800.9829180069
 30
0.0
  0
VERTEX
  5
806
  8
BGTBAS-0
 10
692.8755977616
 20
789.5186134928
 30
0.0
  0
VERTEX
  5
807
  8
BGTBAS-0
 10
694.2178569242
 20
779.1936778779
 30
0.0
  0
VERTEX
  5
808
  8
BGTBAS-0
 10
695.5546436146
 20
770.3158100942
 30
0.0
  0
VERTEX
  5
809
  8
BGTBAS-0
 10
697.0265981643
 20
762.2295900847
 30
0.0
  0
VERTEX
  5
80A
  8
BGTBAS-0
 10
698.4985527139
 20
756.3783508923
 30
0.0
  0
VERTEX
  5
80B
  8
BGTBAS-0
 10
700.0265981643
 20
752.8764502032
 30
0.0
  0
VERTEX
  5
80C
  8
BGTBAS-0
 10
701.5546436146
 20
751.8987633642
 30
0.0
  0
VERTEX
  5
80D
  8
BGTBAS-0
 10
702.2571374827
 20
752.6318644221
 30
0.0
  0
SEQEND
  5
A6B
  8
BGTBAS-0
  0
ARC
  5
1D6
  8
BGTBAS-0
 10
581.3558295227
 20
847.8080267924
 30
0.0
 40
114.2718348386379
 50
342.4310689561
 51
349.6872955073
  0
POLYLINE
  5
1D7
  8
BGTBAS-0
 66
     1
 10
0.0
 20
0.0
 30
0.0
 70
   128
  0
VERTEX
  5
80E
  8
BGTBAS-0
 10
1233.7816448069
 20
827.3510403315
 30
0.0
  0
VERTEX
  5
80F
  8
BGTBAS-0
 10
1235.4044644342
 20
811.8416830397
 30
0.0
  0
VERTEX
  5
810
  8
BGTBAS-0
 10
1236.9894356432
 20
797.6623160185
 30
0.0
  0
VERTEX
  5
811
  8
BGTBAS-0
 10
1238.644135737
 20
784.9262409436
 30
0.0
  0
VERTEX
  5
812
  8
BGTBAS-0
 10
1240.3046436146
 20
774.2094437129
 30
0.0
  0
VERTEX
  5
813
  8
BGTBAS-0
 10
1241.7765981643
 20
766.4988671757
 30
0.0
  0
VERTEX
  5
814
  8
BGTBAS-0
 10
1243.2485527139
 20
760.9194459409
 30
0.0
  0
VERTEX
  5
815
  8
BGTBAS-0
 10
1244.7765981643
 20
757.5802252349
 30
0.0
  0
VERTEX
  5
816
  8
BGTBAS-0
 10
1246.1267088885
 20
756.7565155299
 30
0.0
  0
SEQEND
  5
A6C
  8
BGTBAS-0
  0
POLYLINE
  5
1D8
  8
BGTBAS-0
 66
     1
 10
0.0
 20
0.0
 30
0.0
 70
   128
  0
VERTEX
  5
817
  8
BGTBAS-0
 10
1230.2973962788
 20
813.3147336746
 30
0.0
  0
VERTEX
  5
818
  8
BGTBAS-0
 10
1231.566012292
 20
800.9829180069
 30
0.0
  0
VERTEX
  5
819
  8
BGTBAS-0
 10
1232.8755977616
 20
789.5186134928
 30
0.0
  0
VERTEX
  5
81A
  8
BGTBAS-0
 10
1234.2178569242
 20
779.1936778779
 30
0.0
  0
VERTEX
  5
81B
  8
BGTBAS-0
 10
1235.5546436146
 20
770.3158100942
 30
0.0
  0
VERTEX
  5
81C
  8
BGTBAS-0
 10
1237.0265981643
 20
762.2295900847
 30
0.0
  0
VERTEX
  5
81D
  8
BGTBAS-0
 10
1238.4985527139
 20
756.3783508923
 30
0.0
  0
VERTEX
  5
81E
  8
BGTBAS-0
 10
1240.0265981643
 20
752.8764502032
 30
0.0
  0
VERTEX
  5
81F
  8
BGTBAS-0
 10
1241.5546436146
 20
751.8987633642
 30
0.0
  0
VERTEX
  5
820
  8
BGTBAS-0
 10
1242.2571374827
 20
752.6318644221
 30
0.0
  0
SEQEND
  5
A6D
  8
BGTBAS-0
  0
ARC
  5
1D9
  8
BGTBAS-0
 10
1121.3558295228
 20
847.8080267924
 30
0.0
 40
114.2718348385645
 50
342.4310689561
 51
349.6872955073
  0
POLYLINE
  5
1DA
  8
BGTBAS-0
 66
     1
 10
0.0
 20
0.0
 30
0.0
 70
   128
  0
VERTEX
  5
821
  8
BGTBAS-0
 10
851.3767088885
 20
956.2501828259
 30
0.0
  0
VERTEX
  5
822
  8
BGTBAS-0
 10
851.5546436146
 20
956.3640305128
 30
0.0
  0
VERTEX
  5
823
  8
BGTBAS-0
 10
853.0265981643
 20
954.8279438841
 30
0.0
  0
VERTEX
  5
824
  8
BGTBAS-0
 10
854.4985527139
 20
950.8429951658
 30
0.0
  0
VERTEX
  5
825
  8
BGTBAS-0
 10
856.0265981643
 20
944.4126644853
 30
0.0
  0
VERTEX
  5
826
  8
BGTBAS-0
 10
857.5546436146
 20
935.7316859768
 30
0.0
  0
VERTEX
  5
827
  8
BGTBAS-0
 10
859.0265981643
 20
925.1600255924
 30
0.0
  0
VERTEX
  5
828
  8
BGTBAS-0
 10
860.4985527139
 20
912.8610039304
 30
0.0
  0
VERTEX
  5
829
  8
BGTBAS-0
 10
861.4677602781
 20
904.1704726949
 30
0.0
  0
VERTEX
  5
82A
  8
BGTBAS-0
 10
862.4454283662
 20
894.9480602024
 30
0.0
  0
SEQEND
  5
A6E
  8
BGTBAS-0
  0
POLYLINE
  5
1DB
  8
BGTBAS-0
 66
     1
 10
0.0
 20
0.0
 30
0.0
 70
   128
  0
VERTEX
  5
82B
  8
BGTBAS-0
 10
857.045602039
 20
950.8775165305
 30
0.0
  0
VERTEX
  5
82C
  8
BGTBAS-0
 10
857.7765981643
 20
950.1501091849
 30
0.0
  0
VERTEX
  5
82D
  8
BGTBAS-0
 10
859.2485527139
 20
946.3502803337
 30
0.0
  0
VERTEX
  5
82E
  8
BGTBAS-0
 10
860.7765981643
 20
940.2186691714
 30
0.0
  0
VERTEX
  5
82F
  8
BGTBAS-0
 10
862.3046436146
 20
931.9409635031
 30
0.0
  0
VERTEX
  5
830
  8
BGTBAS-0
 10
863.7765981643
 20
921.8604071464
 30
0.0
  0
VERTEX
  5
831
  8
BGTBAS-0
 10
865.2485527139
 20
910.1327336789
 30
0.0
  0
VERTEX
  5
832
  8
BGTBAS-0
 10
866.8620475799
 20
896.0993803676
 30
0.0
  0
VERTEX
  5
833
  8
BGTBAS-0
 10
868.4720012913
 20
880.9117535455
 30
0.0
  0
SEQEND
  5
A6F
  8
BGTBAS-0
  0
ARC
  5
1DC
  8
BGTBAS-0
 10
721.8156670912
 20
826.255897925
 30
0.0
 40
156.5098812044001
 50
20.4394091137
 51
26.0337078399
  0
POLYLINE
  5
1DD
  8
BGTBAS-0
 66
     1
 10
0.0
 20
0.0
 30
0.0
 70
   128
  0
VERTEX
  5
834
  8
BGTBAS-0
 10
1331.3767088885
 20
956.2501828259
 30
0.0
  0
VERTEX
  5
835
  8
BGTBAS-0
 10
1331.5546436146
 20
956.3640305128
 30
0.0
  0
VERTEX
  5
836
  8
BGTBAS-0
 10
1333.0265981643
 20
954.8279438841
 30
0.0
  0
VERTEX
  5
837
  8
BGTBAS-0
 10
1334.4985527139
 20
950.8429951658
 30
0.0
  0
VERTEX
  5
838
  8
BGTBAS-0
 10
1336.0265981643
 20
944.4126644853
 30
0.0
  0
VERTEX
  5
839
  8
BGTBAS-0
 10
1337.5546436146
 20
935.7316859768
 30
0.0
  0
VERTEX
  5
83A
  8
BGTBAS-0
 10
1339.0265981643
 20
925.1600255924
 30
0.0
  0
VERTEX
  5
83B
  8
BGTBAS-0
 10
1340.4985527139
 20
912.8610039304
 30
0.0
  0
VERTEX
  5
83C
  8
BGTBAS-0
 10
1341.4677602781
 20
904.1704726949
 30
0.0
  0
VERTEX
  5
83D
  8
BGTBAS-0
 10
1342.4454283662
 20
894.9480602024
 30
0.0
  0
SEQEND
  5
A70
  8
BGTBAS-0
  0
POLYLINE
  5
1DE
  8
BGTBAS-0
 66
     1
 10
0.0
 20
0.0
 30
0.0
 70
   128
  0
VERTEX
  5
83E
  8
BGTBAS-0
 10
1337.045602039
 20
950.8775165305
 30
0.0
  0
VERTEX
  5
83F
  8
BGTBAS-0
 10
1337.7765981643
 20
950.1501091849
 30
0.0
  0
VERTEX
  5
840
  8
BGTBAS-0
 10
1339.2485527139
 20
946.3502803337
 30
0.0
  0
VERTEX
  5
841
  8
BGTBAS-0
 10
1340.7765981643
 20
940.2186691714
 30
0.0
  0
VERTEX
  5
842
  8
BGTBAS-0
 10
1342.3046436146
 20
931.9409635031
 30
0.0
  0
VERTEX
  5
843
  8
BGTBAS-0
 10
1343.7765981643
 20
921.8604071464
 30
0.0
  0
VERTEX
  5
844
  8
BGTBAS-0
 10
1345.2485527139
 20
910.1327336789
 30
0.0
  0
VERTEX
  5
845
  8
BGTBAS-0
 10
1346.8620475799
 20
896.0993803676
 30
0.0
  0
VERTEX
  5
846
  8
BGTBAS-0
 10
1348.4720012913
 20
880.9117535455
 30
0.0
  0
SEQEND
  5
A71
  8
BGTBAS-0
  0
ARC
  5
1DF
  8
BGTBAS-0
 10
1201.8156670912
 20
826.255897925
 30
0.0
 40
156.5098812044135
 50
20.4394091137
 51
26.0337078399
  0
POLYLINE
  5
1E0
  8
BGTBAS-0
 66
     1
 10
0.0
 20
0.0
 30
0.0
 70
   128
  0
VERTEX
  5
847
  8
BGTBAS-0
 10
1091.3767088885
 20
956.2501828259
 30
0.0
  0
VERTEX
  5
848
  8
BGTBAS-0
 10
1091.5546436146
 20
956.3640305128
 30
0.0
  0
VERTEX
  5
849
  8
BGTBAS-0
 10
1093.0265981643
 20
954.8279438841
 30
0.0
  0
VERTEX
  5
84A
  8
BGTBAS-0
 10
1094.4985527139
 20
950.8429951658
 30
0.0
  0
VERTEX
  5
84B
  8
BGTBAS-0
 10
1096.0265981643
 20
944.4126644853
 30
0.0
  0
VERTEX
  5
84C
  8
BGTBAS-0
 10
1097.5546436146
 20
935.7316859768
 30
0.0
  0
VERTEX
  5
84D
  8
BGTBAS-0
 10
1099.0265981643
 20
925.1600255924
 30
0.0
  0
VERTEX
  5
84E
  8
BGTBAS-0
 10
1100.4985527139
 20
912.8610039304
 30
0.0
  0
VERTEX
  5
84F
  8
BGTBAS-0
 10
1101.4677602781
 20
904.1704726949
 30
0.0
  0
VERTEX
  5
850
  8
BGTBAS-0
 10
1102.4454283662
 20
894.9480602024
 30
0.0
  0
SEQEND
  5
A72
  8
BGTBAS-0
  0
POLYLINE
  5
1E1
  8
BGTBAS-0
 66
     1
 10
0.0
 20
0.0
 30
0.0
 70
   128
  0
VERTEX
  5
851
  8
BGTBAS-0
 10
1097.045602039
 20
950.8775165305
 30
0.0
  0
VERTEX
  5
852
  8
BGTBAS-0
 10
1097.7765981643
 20
950.1501091849
 30
0.0
  0
VERTEX
  5
853
  8
BGTBAS-0
 10
1099.2485527139
 20
946.3502803337
 30
0.0
  0
VERTEX
  5
854
  8
BGTBAS-0
 10
1100.7765981643
 20
940.2186691714
 30
0.0
  0
VERTEX
  5
855
  8
BGTBAS-0
 10
1102.3046436146
 20
931.9409635031
 30
0.0
  0
VERTEX
  5
856
  8
BGTBAS-0
 10
1103.7765981643
 20
921.8604071464
 30
0.0
  0
VERTEX
  5
857
  8
BGTBAS-0
 10
1105.2485527139
 20
910.1327336789
 30
0.0
  0
VERTEX
  5
858
  8
BGTBAS-0
 10
1106.8620475799
 20
896.0993803676
 30
0.0
  0
VERTEX
  5
859
  8
BGTBAS-0
 10
1108.4720012913
 20
880.9117535455
 30
0.0
  0
SEQEND
  5
A73
  8
BGTBAS-0
  0
ARC
  5
1E2
  8
BGTBAS-0
 10
961.8156670913
 20
826.255897925
 30
0.0
 40
156.5098812043592
 50
20.4394091137
 51
26.0337078399
  0
POLYLINE
  5
1E3
  8
BGTBAS-0
 66
     1
 10
0.0
 20
0.0
 30
0.0
 70
   128
  0
VERTEX
  5
85A
  8
BGTBAS-0
 10
1151.3767088885
 20
956.2501828259
 30
0.0
  0
VERTEX
  5
85B
  8
BGTBAS-0
 10
1151.5546436146
 20
956.3640305128
 30
0.0
  0
VERTEX
  5
85C
  8
BGTBAS-0
 10
1153.0265981643
 20
954.8279438841
 30
0.0
  0
VERTEX
  5
85D
  8
BGTBAS-0
 10
1154.4985527139
 20
950.8429951658
 30
0.0
  0
VERTEX
  5
85E
  8
BGTBAS-0
 10
1156.0265981643
 20
944.4126644853
 30
0.0
  0
VERTEX
  5
85F
  8
BGTBAS-0
 10
1157.5546436146
 20
935.7316859768
 30
0.0
  0
VERTEX
  5
860
  8
BGTBAS-0
 10
1159.0265981643
 20
925.1600255924
 30
0.0
  0
VERTEX
  5
861
  8
BGTBAS-0
 10
1160.4985527139
 20
912.8610039304
 30
0.0
  0
VERTEX
  5
862
  8
BGTBAS-0
 10
1161.4677602781
 20
904.1704726949
 30
0.0
  0
VERTEX
  5
863
  8
BGTBAS-0
 10
1162.4454283662
 20
894.9480602024
 30
0.0
  0
SEQEND
  5
A74
  8
BGTBAS-0
  0
POLYLINE
  5
1E4
  8
BGTBAS-0
 66
     1
 10
0.0
 20
0.0
 30
0.0
 70
   128
  0
VERTEX
  5
864
  8
BGTBAS-0
 10
1157.045602039
 20
950.8775165305
 30
0.0
  0
VERTEX
  5
865
  8
BGTBAS-0
 10
1157.7765981643
 20
950.1501091849
 30
0.0
  0
VERTEX
  5
866
  8
BGTBAS-0
 10
1159.2485527139
 20
946.3502803337
 30
0.0
  0
VERTEX
  5
867
  8
BGTBAS-0
 10
1160.7765981643
 20
940.2186691714
 30
0.0
  0
VERTEX
  5
868
  8
BGTBAS-0
 10
1162.3046436146
 20
931.9409635031
 30
0.0
  0
VERTEX
  5
869
  8
BGTBAS-0
 10
1163.7765981643
 20
921.8604071464
 30
0.0
  0
VERTEX
  5
86A
  8
BGTBAS-0
 10
1165.2485527139
 20
910.1327336789
 30
0.0
  0
VERTEX
  5
86B
  8
BGTBAS-0
 10
1166.8620475799
 20
896.0993803676
 30
0.0
  0
VERTEX
  5
86C
  8
BGTBAS-0
 10
1168.4720012913
 20
880.9117535455
 30
0.0
  0
SEQEND
  5
A75
  8
BGTBAS-0
  0
ARC
  5
1E5
  8
BGTBAS-0
 10
1021.8156670911
 20
826.255897925
 30
0.0
 40
156.5098812044877
 50
20.4394091137
 51
26.0337078399
  0
POLYLINE
  5
1E6
  8
BGTBAS-0
 66
     1
 10
0.0
 20
0.0
 30
0.0
 70
   128
  0
VERTEX
  5
86D
  8
BGTBAS-0
 10
1271.3767088885
 20
956.2501828259
 30
0.0
  0
VERTEX
  5
86E
  8
BGTBAS-0
 10
1271.5546436146
 20
956.3640305128
 30
0.0
  0
VERTEX
  5
86F
  8
BGTBAS-0
 10
1273.0265981643
 20
954.8279438841
 30
0.0
  0
VERTEX
  5
870
  8
BGTBAS-0
 10
1274.4985527139
 20
950.8429951658
 30
0.0
  0
VERTEX
  5
871
  8
BGTBAS-0
 10
1276.0265981643
 20
944.4126644853
 30
0.0
  0
VERTEX
  5
872
  8
BGTBAS-0
 10
1277.5546436146
 20
935.7316859768
 30
0.0
  0
VERTEX
  5
873
  8
BGTBAS-0
 10
1279.0265981643
 20
925.1600255924
 30
0.0
  0
VERTEX
  5
874
  8
BGTBAS-0
 10
1280.4985527139
 20
912.8610039304
 30
0.0
  0
VERTEX
  5
875
  8
BGTBAS-0
 10
1281.4677602781
 20
904.1704726949
 30
0.0
  0
VERTEX
  5
876
  8
BGTBAS-0
 10
1282.4454283662
 20
894.9480602024
 30
0.0
  0
SEQEND
  5
A76
  8
BGTBAS-0
  0
POLYLINE
  5
1E7
  8
BGTBAS-0
 66
     1
 10
0.0
 20
0.0
 30
0.0
 70
   128
  0
VERTEX
  5
877
  8
BGTBAS-0
 10
1277.045602039
 20
950.8775165305
 30
0.0
  0
VERTEX
  5
878
  8
BGTBAS-0
 10
1277.7765981643
 20
950.1501091849
 30
0.0
  0
VERTEX
  5
879
  8
BGTBAS-0
 10
1279.2485527139
 20
946.3502803337
 30
0.0
  0
VERTEX
  5
87A
  8
BGTBAS-0
 10
1280.7765981643
 20
940.2186691714
 30
0.0
  0
VERTEX
  5
87B
  8
BGTBAS-0
 10
1282.3046436146
 20
931.9409635031
 30
0.0
  0
VERTEX
  5
87C
  8
BGTBAS-0
 10
1283.7765981643
 20
921.8604071464
 30
0.0
  0
VERTEX
  5
87D
  8
BGTBAS-0
 10
1285.2485527139
 20
910.1327336789
 30
0.0
  0
VERTEX
  5
87E
  8
BGTBAS-0
 10
1286.8620475799
 20
896.0993803676
 30
0.0
  0
VERTEX
  5
87F
  8
BGTBAS-0
 10
1288.4720012913
 20
880.9117535455
 30
0.0
  0
SEQEND
  5
A77
  8
BGTBAS-0
  0
ARC
  5
1E8
  8
BGTBAS-0
 10
1141.8156670911
 20
826.255897925
 30
0.0
 40
156.5098812045318
 50
20.4394091137
 51
26.0337078399
  0
POLYLINE
  5
1E9
  8
BGTBAS-0
 66
     1
 10
0.0
 20
0.0
 30
0.0
 70
   128
  0
VERTEX
  5
880
  8
BGTBAS-0
 10
1031.3767088885
 20
956.2501828259
 30
0.0
  0
VERTEX
  5
881
  8
BGTBAS-0
 10
1031.5546436146
 20
956.3640305128
 30
0.0
  0
VERTEX
  5
882
  8
BGTBAS-0
 10
1033.0265981643
 20
954.8279438841
 30
0.0
  0
VERTEX
  5
883
  8
BGTBAS-0
 10
1034.4985527139
 20
950.8429951658
 30
0.0
  0
VERTEX
  5
884
  8
BGTBAS-0
 10
1036.0265981643
 20
944.4126644853
 30
0.0
  0
VERTEX
  5
885
  8
BGTBAS-0
 10
1037.5546436146
 20
935.7316859768
 30
0.0
  0
VERTEX
  5
886
  8
BGTBAS-0
 10
1039.0265981643
 20
925.1600255924
 30
0.0
  0
VERTEX
  5
887
  8
BGTBAS-0
 10
1040.4985527139
 20
912.8610039304
 30
0.0
  0
VERTEX
  5
888
  8
BGTBAS-0
 10
1041.4677602781
 20
904.1704726949
 30
0.0
  0
VERTEX
  5
889
  8
BGTBAS-0
 10
1042.4454283662
 20
894.9480602024
 30
0.0
  0
SEQEND
  5
A78
  8
BGTBAS-0
  0
POLYLINE
  5
1EA
  8
BGTBAS-0
 66
     1
 10
0.0
 20
0.0
 30
0.0
 70
   128
  0
VERTEX
  5
88A
  8
BGTBAS-0
 10
1037.045602039
 20
950.8775165305
 30
0.0
  0
VERTEX
  5
88B
  8
BGTBAS-0
 10
1037.7765981643
 20
950.1501091849
 30
0.0
  0
VERTEX
  5
88C
  8
BGTBAS-0
 10
1039.2485527139
 20
946.3502803337
 30
0.0
  0
VERTEX
  5
88D
  8
BGTBAS-0
 10
1040.7765981643
 20
940.2186691714
 30
0.0
  0
VERTEX
  5
88E
  8
BGTBAS-0
 10
1042.3046436146
 20
931.9409635031
 30
0.0
  0
VERTEX
  5
88F
  8
BGTBAS-0
 10
1043.7765981643
 20
921.8604071464
 30
0.0
  0
VERTEX
  5
890
  8
BGTBAS-0
 10
1045.2485527139
 20
910.1327336789
 30
0.0
  0
VERTEX
  5
891
  8
BGTBAS-0
 10
1046.8620475799
 20
896.0993803676
 30
0.0
  0
VERTEX
  5
892
  8
BGTBAS-0
 10
1048.4720012913
 20
880.9117535455
 30
0.0
  0
SEQEND
  5
A79
  8
BGTBAS-0
  0
ARC
  5
1EB
  8
BGTBAS-0
 10
901.8156670913
 20
826.2558979251
 30
0.0
 40
156.509881204283
 50
20.4394091137
 51
26.0337078399
  0
POLYLINE
  5
1EC
  8
BGTBAS-0
 66
     1
 10
0.0
 20
0.0
 30
0.0
 70
   128
  0
VERTEX
  5
893
  8
BGTBAS-0
 10
971.3767088885
 20
956.2501828259
 30
0.0
  0
VERTEX
  5
894
  8
BGTBAS-0
 10
971.5546436146
 20
956.3640305128
 30
0.0
  0
VERTEX
  5
895
  8
BGTBAS-0
 10
973.0265981643
 20
954.8279438841
 30
0.0
  0
VERTEX
  5
896
  8
BGTBAS-0
 10
974.4985527139
 20
950.8429951658
 30
0.0
  0
VERTEX
  5
897
  8
BGTBAS-0
 10
976.0265981643
 20
944.4126644853
 30
0.0
  0
VERTEX
  5
898
  8
BGTBAS-0
 10
977.5546436146
 20
935.7316859768
 30
0.0
  0
VERTEX
  5
899
  8
BGTBAS-0
 10
979.0265981643
 20
925.1600255924
 30
0.0
  0
VERTEX
  5
89A
  8
BGTBAS-0
 10
980.4985527139
 20
912.8610039304
 30
0.0
  0
VERTEX
  5
89B
  8
BGTBAS-0
 10
981.4677602781
 20
904.1704726949
 30
0.0
  0
VERTEX
  5
89C
  8
BGTBAS-0
 10
982.4454283662
 20
894.9480602024
 30
0.0
  0
SEQEND
  5
A7A
  8
BGTBAS-0
  0
POLYLINE
  5
1ED
  8
BGTBAS-0
 66
     1
 10
0.0
 20
0.0
 30
0.0
 70
   128
  0
VERTEX
  5
89D
  8
BGTBAS-0
 10
977.045602039
 20
950.8775165305
 30
0.0
  0
VERTEX
  5
89E
  8
BGTBAS-0
 10
977.7765981643
 20
950.1501091849
 30
0.0
  0
VERTEX
  5
89F
  8
BGTBAS-0
 10
979.2485527139
 20
946.3502803337
 30
0.0
  0
VERTEX
  5
8A0
  8
BGTBAS-0
 10
980.7765981643
 20
940.2186691714
 30
0.0
  0
VERTEX
  5
8A1
  8
BGTBAS-0
 10
982.3046436146
 20
931.9409635031
 30
0.0
  0
VERTEX
  5
8A2
  8
BGTBAS-0
 10
983.7765981643
 20
921.8604071464
 30
0.0
  0
VERTEX
  5
8A3
  8
BGTBAS-0
 10
985.2485527139
 20
910.1327336789
 30
0.0
  0
VERTEX
  5
8A4
  8
BGTBAS-0
 10
986.8620475799
 20
896.0993803676
 30
0.0
  0
VERTEX
  5
8A5
  8
BGTBAS-0
 10
988.4720012913
 20
880.9117535455
 30
0.0
  0
SEQEND
  5
A7B
  8
BGTBAS-0
  0
ARC
  5
1EE
  8
BGTBAS-0
 10
841.8156670912
 20
826.255897925
 30
0.0
 40
156.5098812044229
 50
20.4394091137
 51
26.0337078399
  0
POLYLINE
  5
1EF
  8
BGTBAS-0
 66
     1
 10
0.0
 20
0.0
 30
0.0
 70
   128
  0
VERTEX
  5
8A6
  8
BGTBAS-0
 10
1211.3767088885
 20
956.2501828259
 30
0.0
  0
VERTEX
  5
8A7
  8
BGTBAS-0
 10
1211.5546436146
 20
956.3640305128
 30
0.0
  0
VERTEX
  5
8A8
  8
BGTBAS-0
 10
1213.0265981643
 20
954.8279438841
 30
0.0
  0
VERTEX
  5
8A9
  8
BGTBAS-0
 10
1214.4985527139
 20
950.8429951658
 30
0.0
  0
VERTEX
  5
8AA
  8
BGTBAS-0
 10
1216.0265981643
 20
944.4126644853
 30
0.0
  0
VERTEX
  5
8AB
  8
BGTBAS-0
 10
1217.5546436146
 20
935.7316859768
 30
0.0
  0
VERTEX
  5
8AC
  8
BGTBAS-0
 10
1219.0265981643
 20
925.1600255924
 30
0.0
  0
VERTEX
  5
8AD
  8
BGTBAS-0
 10
1220.4985527139
 20
912.8610039304
 30
0.0
  0
VERTEX
  5
8AE
  8
BGTBAS-0
 10
1221.4677602781
 20
904.1704726949
 30
0.0
  0
VERTEX
  5
8AF
  8
BGTBAS-0
 10
1222.4454283662
 20
894.9480602024
 30
0.0
  0
SEQEND
  5
A7C
  8
BGTBAS-0
  0
POLYLINE
  5
1F0
  8
BGTBAS-0
 66
     1
 10
0.0
 20
0.0
 30
0.0
 70
   128
  0
VERTEX
  5
8B0
  8
BGTBAS-0
 10
1217.045602039
 20
950.8775165305
 30
0.0
  0
VERTEX
  5
8B1
  8
BGTBAS-0
 10
1217.7765981643
 20
950.1501091849
 30
0.0
  0
VERTEX
  5
8B2
  8
BGTBAS-0
 10
1219.2485527139
 20
946.3502803337
 30
0.0
  0
VERTEX
  5
8B3
  8
BGTBAS-0
 10
1220.7765981643
 20
940.2186691714
 30
0.0
  0
VERTEX
  5
8B4
  8
BGTBAS-0
 10
1222.3046436146
 20
931.9409635031
 30
0.0
  0
VERTEX
  5
8B5
  8
BGTBAS-0
 10
1223.7765981643
 20
921.8604071464
 30
0.0
  0
VERTEX
  5
8B6
  8
BGTBAS-0
 10
1225.2485527139
 20
910.1327336789
 30
0.0
  0
VERTEX
  5
8B7
  8
BGTBAS-0
 10
1226.8620475799
 20
896.0993803676
 30
0.0
  0
VERTEX
  5
8B8
  8
BGTBAS-0
 10
1228.4720012913
 20
880.9117535455
 30
0.0
  0
SEQEND
  5
A7D
  8
BGTBAS-0
  0
ARC
  5
1F1
  8
BGTBAS-0
 10
1081.8156670911
 20
826.255897925
 30
0.0
 40
156.5098812044876
 50
20.4394091137
 51
26.0337078399
  0
POLYLINE
  5
1F2
  8
BGTBAS-0
 66
     1
 10
0.0
 20
0.0
 30
0.0
 70
   128
  0
VERTEX
  5
8B9
  8
BGTBAS-0
 10
251.3767088885
 20
956.2501828259
 30
0.0
  0
VERTEX
  5
8BA
  8
BGTBAS-0
 10
251.5546436146
 20
956.3640305128
 30
0.0
  0
VERTEX
  5
8BB
  8
BGTBAS-0
 10
253.0265981643
 20
954.8279438841
 30
0.0
  0
VERTEX
  5
8BC
  8
BGTBAS-0
 10
254.4985527139
 20
950.8429951658
 30
0.0
  0
VERTEX
  5
8BD
  8
BGTBAS-0
 10
256.0265981643
 20
944.4126644853
 30
0.0
  0
VERTEX
  5
8BE
  8
BGTBAS-0
 10
257.5546436146
 20
935.7316859768
 30
0.0
  0
VERTEX
  5
8BF
  8
BGTBAS-0
 10
259.0265981643
 20
925.1600255924
 30
0.0
  0
VERTEX
  5
8C0
  8
BGTBAS-0
 10
260.4985527139
 20
912.8610039304
 30
0.0
  0
VERTEX
  5
8C1
  8
BGTBAS-0
 10
261.4677602781
 20
904.1704726949
 30
0.0
  0
VERTEX
  5
8C2
  8
BGTBAS-0
 10
262.4454283663
 20
894.9480602024
 30
0.0
  0
SEQEND
  5
A7E
  8
BGTBAS-0
  0
POLYLINE
  5
1F3
  8
BGTBAS-0
 66
     1
 10
0.0
 20
0.0
 30
0.0
 70
   128
  0
VERTEX
  5
8C3
  8
BGTBAS-0
 10
257.045602039
 20
950.8775165305
 30
0.0
  0
VERTEX
  5
8C4
  8
BGTBAS-0
 10
257.7765981643
 20
950.1501091849
 30
0.0
  0
VERTEX
  5
8C5
  8
BGTBAS-0
 10
259.2485527139
 20
946.3502803337
 30
0.0
  0
VERTEX
  5
8C6
  8
BGTBAS-0
 10
260.7765981643
 20
940.2186691714
 30
0.0
  0
VERTEX
  5
8C7
  8
BGTBAS-0
 10
262.3046436146
 20
931.9409635031
 30
0.0
  0
VERTEX
  5
8C8
  8
BGTBAS-0
 10
263.7765981643
 20
921.8604071464
 30
0.0
  0
VERTEX
  5
8C9
  8
BGTBAS-0
 10
265.2485527139
 20
910.1327336789
 30
0.0
  0
VERTEX
  5
8CA
  8
BGTBAS-0
 10
266.8620475799
 20
896.0993803676
 30
0.0
  0
VERTEX
  5
8CB
  8
BGTBAS-0
 10
268.4720012913
 20
880.9117535455
 30
0.0
  0
SEQEND
  5
A7F
  8
BGTBAS-0
  0
ARC
  5
1F4
  8
BGTBAS-0
 10
121.8156670911
 20
826.255897925
 30
0.0
 40
156.5098812045229
 50
20.4394091137
 51
26.0337078399
  0
POLYLINE
  5
1F5
  8
BGTBAS-0
 66
     1
 10
0.0
 20
0.0
 30
0.0
 70
   128
  0
VERTEX
  5
8CC
  8
BGTBAS-0
 10
311.3767088885
 20
956.2501828259
 30
0.0
  0
VERTEX
  5
8CD
  8
BGTBAS-0
 10
311.5546436146
 20
956.3640305128
 30
0.0
  0
VERTEX
  5
8CE
  8
BGTBAS-0
 10
313.0265981643
 20
954.8279438841
 30
0.0
  0
VERTEX
  5
8CF
  8
BGTBAS-0
 10
314.4985527139
 20
950.8429951658
 30
0.0
  0
VERTEX
  5
8D0
  8
BGTBAS-0
 10
316.0265981643
 20
944.4126644853
 30
0.0
  0
VERTEX
  5
8D1
  8
BGTBAS-0
 10
317.5546436146
 20
935.7316859768
 30
0.0
  0
VERTEX
  5
8D2
  8
BGTBAS-0
 10
319.0265981643
 20
925.1600255924
 30
0.0
  0
VERTEX
  5
8D3
  8
BGTBAS-0
 10
320.4985527139
 20
912.8610039304
 30
0.0
  0
VERTEX
  5
8D4
  8
BGTBAS-0
 10
321.4677602781
 20
904.1704726949
 30
0.0
  0
VERTEX
  5
8D5
  8
BGTBAS-0
 10
322.4454283663
 20
894.9480602024
 30
0.0
  0
SEQEND
  5
A80
  8
BGTBAS-0
  0
POLYLINE
  5
1F6
  8
BGTBAS-0
 66
     1
 10
0.0
 20
0.0
 30
0.0
 70
   128
  0
VERTEX
  5
8D6
  8
BGTBAS-0
 10
317.045602039
 20
950.8775165305
 30
0.0
  0
VERTEX
  5
8D7
  8
BGTBAS-0
 10
317.7765981643
 20
950.1501091849
 30
0.0
  0
VERTEX
  5
8D8
  8
BGTBAS-0
 10
319.2485527139
 20
946.3502803337
 30
0.0
  0
VERTEX
  5
8D9
  8
BGTBAS-0
 10
320.7765981643
 20
940.2186691714
 30
0.0
  0
VERTEX
  5
8DA
  8
BGTBAS-0
 10
322.3046436146
 20
931.9409635031
 30
0.0
  0
VERTEX
  5
8DB
  8
BGTBAS-0
 10
323.7765981643
 20
921.8604071464
 30
0.0
  0
VERTEX
  5
8DC
  8
BGTBAS-0
 10
325.2485527139
 20
910.1327336789
 30
0.0
  0
VERTEX
  5
8DD
  8
BGTBAS-0
 10
326.8620475799
 20
896.0993803676
 30
0.0
  0
VERTEX
  5
8DE
  8
BGTBAS-0
 10
328.4720012913
 20
880.9117535455
 30
0.0
  0
SEQEND
  5
A81
  8
BGTBAS-0
  0
ARC
  5
1F7
  8
BGTBAS-0
 10
181.8156670914
 20
826.2558979251
 30
0.0
 40
156.5098812042363
 50
20.4394091137
 51
26.0337078399
  0
POLYLINE
  5
1F8
  8
BGTBAS-0
 66
     1
 10
0.0
 20
0.0
 30
0.0
 70
   128
  0
VERTEX
  5
8DF
  8
BGTBAS-0
 10
491.3767088885
 20
956.2501828259
 30
0.0
  0
VERTEX
  5
8E0
  8
BGTBAS-0
 10
491.5546436146
 20
956.3640305128
 30
0.0
  0
VERTEX
  5
8E1
  8
BGTBAS-0
 10
493.0265981643
 20
954.8279438841
 30
0.0
  0
VERTEX
  5
8E2
  8
BGTBAS-0
 10
494.4985527139
 20
950.8429951658
 30
0.0
  0
VERTEX
  5
8E3
  8
BGTBAS-0
 10
496.0265981643
 20
944.4126644853
 30
0.0
  0
VERTEX
  5
8E4
  8
BGTBAS-0
 10
497.5546436146
 20
935.7316859768
 30
0.0
  0
VERTEX
  5
8E5
  8
BGTBAS-0
 10
499.0265981643
 20
925.1600255924
 30
0.0
  0
VERTEX
  5
8E6
  8
BGTBAS-0
 10
500.4985527139
 20
912.8610039304
 30
0.0
  0
VERTEX
  5
8E7
  8
BGTBAS-0
 10
501.4677602781
 20
904.1704726949
 30
0.0
  0
VERTEX
  5
8E8
  8
BGTBAS-0
 10
502.4454283662
 20
894.9480602024
 30
0.0
  0
SEQEND
  5
A82
  8
BGTBAS-0
  0
POLYLINE
  5
1F9
  8
BGTBAS-0
 66
     1
 10
0.0
 20
0.0
 30
0.0
 70
   128
  0
VERTEX
  5
8E9
  8
BGTBAS-0
 10
497.045602039
 20
950.8775165305
 30
0.0
  0
VERTEX
  5
8EA
  8
BGTBAS-0
 10
497.7765981643
 20
950.1501091849
 30
0.0
  0
VERTEX
  5
8EB
  8
BGTBAS-0
 10
499.2485527139
 20
946.3502803337
 30
0.0
  0
VERTEX
  5
8EC
  8
BGTBAS-0
 10
500.7765981643
 20
940.2186691714
 30
0.0
  0
VERTEX
  5
8ED
  8
BGTBAS-0
 10
502.3046436146
 20
931.9409635031
 30
0.0
  0
VERTEX
  5
8EE
  8
BGTBAS-0
 10
503.7765981643
 20
921.8604071464
 30
0.0
  0
VERTEX
  5
8EF
  8
BGTBAS-0
 10
505.2485527139
 20
910.1327336789
 30
0.0
  0
VERTEX
  5
8F0
  8
BGTBAS-0
 10
506.8620475799
 20
896.0993803676
 30
0.0
  0
VERTEX
  5
8F1
  8
BGTBAS-0
 10
508.4720012913
 20
880.9117535455
 30
0.0
  0
SEQEND
  5
A83
  8
BGTBAS-0
  0
ARC
  5
1FA
  8
BGTBAS-0
 10
361.8156670914
 20
826.2558979251
 30
0.0
 40
156.5098812042127
 50
20.4394091137
 51
26.0337078399
  0
POLYLINE
  5
1FB
  8
BGTBAS-0
 66
     1
 10
0.0
 20
0.0
 30
0.0
 70
   128
  0
VERTEX
  5
8F2
  8
BGTBAS-0
 10
371.3767088885
 20
956.2501828259
 30
0.0
  0
VERTEX
  5
8F3
  8
BGTBAS-0
 10
371.5546436146
 20
956.3640305128
 30
0.0
  0
VERTEX
  5
8F4
  8
BGTBAS-0
 10
373.0265981643
 20
954.8279438841
 30
0.0
  0
VERTEX
  5
8F5
  8
BGTBAS-0
 10
374.4985527139
 20
950.8429951658
 30
0.0
  0
VERTEX
  5
8F6
  8
BGTBAS-0
 10
376.0265981643
 20
944.4126644853
 30
0.0
  0
VERTEX
  5
8F7
  8
BGTBAS-0
 10
377.5546436146
 20
935.7316859768
 30
0.0
  0
VERTEX
  5
8F8
  8
BGTBAS-0
 10
379.0265981643
 20
925.1600255924
 30
0.0
  0
VERTEX
  5
8F9
  8
BGTBAS-0
 10
380.4985527139
 20
912.8610039304
 30
0.0
  0
VERTEX
  5
8FA
  8
BGTBAS-0
 10
381.4677602781
 20
904.1704726949
 30
0.0
  0
VERTEX
  5
8FB
  8
BGTBAS-0
 10
382.4454283663
 20
894.9480602024
 30
0.0
  0
SEQEND
  5
A84
  8
BGTBAS-0
  0
POLYLINE
  5
1FC
  8
BGTBAS-0
 66
     1
 10
0.0
 20
0.0
 30
0.0
 70
   128
  0
VERTEX
  5
8FC
  8
BGTBAS-0
 10
377.045602039
 20
950.8775165305
 30
0.0
  0
VERTEX
  5
8FD
  8
BGTBAS-0
 10
377.7765981643
 20
950.1501091849
 30
0.0
  0
VERTEX
  5
8FE
  8
BGTBAS-0
 10
379.2485527139
 20
946.3502803337
 30
0.0
  0
VERTEX
  5
8FF
  8
BGTBAS-0
 10
380.7765981643
 20
940.2186691714
 30
0.0
  0
VERTEX
  5
900
  8
BGTBAS-0
 10
382.3046436146
 20
931.9409635031
 30
0.0
  0
VERTEX
  5
901
  8
BGTBAS-0
 10
383.7765981643
 20
921.8604071464
 30
0.0
  0
VERTEX
  5
902
  8
BGTBAS-0
 10
385.2485527139
 20
910.1327336789
 30
0.0
  0
VERTEX
  5
903
  8
BGTBAS-0
 10
386.8620475799
 20
896.0993803676
 30
0.0
  0
VERTEX
  5
904
  8
BGTBAS-0
 10
388.4720012913
 20
880.9117535455
 30
0.0
  0
SEQEND
  5
A85
  8
BGTBAS-0
  0
ARC
  5
1FD
  8
BGTBAS-0
 10
241.8156670913
 20
826.2558979251
 30
0.0
 40
156.509881204268
 50
20.4394091137
 51
26.0337078399
  0
POLYLINE
  5
1FE
  8
BGTBAS-0
 66
     1
 10
0.0
 20
0.0
 30
0.0
 70
   128
  0
VERTEX
  5
905
  8
BGTBAS-0
 10
431.3767088885
 20
956.2501828259
 30
0.0
  0
VERTEX
  5
906
  8
BGTBAS-0
 10
431.5546436146
 20
956.3640305128
 30
0.0
  0
VERTEX
  5
907
  8
BGTBAS-0
 10
433.0265981643
 20
954.8279438841
 30
0.0
  0
VERTEX
  5
908
  8
BGTBAS-0
 10
434.4985527139
 20
950.8429951658
 30
0.0
  0
VERTEX
  5
909
  8
BGTBAS-0
 10
436.0265981643
 20
944.4126644853
 30
0.0
  0
VERTEX
  5
90A
  8
BGTBAS-0
 10
437.5546436146
 20
935.7316859768
 30
0.0
  0
VERTEX
  5
90B
  8
BGTBAS-0
 10
439.0265981643
 20
925.1600255924
 30
0.0
  0
VERTEX
  5
90C
  8
BGTBAS-0
 10
440.4985527139
 20
912.8610039304
 30
0.0
  0
VERTEX
  5
90D
  8
BGTBAS-0
 10
441.4677602781
 20
904.1704726949
 30
0.0
  0
VERTEX
  5
90E
  8
BGTBAS-0
 10
442.4454283662
 20
894.9480602024
 30
0.0
  0
SEQEND
  5
A86
  8
BGTBAS-0
  0
POLYLINE
  5
1FF
  8
BGTBAS-0
 66
     1
 10
0.0
 20
0.0
 30
0.0
 70
   128
  0
VERTEX
  5
90F
  8
BGTBAS-0
 10
437.045602039
 20
950.8775165305
 30
0.0
  0
VERTEX
  5
910
  8
BGTBAS-0
 10
437.7765981643
 20
950.1501091849
 30
0.0
  0
VERTEX
  5
911
  8
BGTBAS-0
 10
439.2485527139
 20
946.3502803337
 30
0.0
  0
VERTEX
  5
912
  8
BGTBAS-0
 10
440.7765981643
 20
940.2186691714
 30
0.0
  0
VERTEX
  5
913
  8
BGTBAS-0
 10
442.3046436146
 20
931.9409635031
 30
0.0
  0
VERTEX
  5
914
  8
BGTBAS-0
 10
443.7765981643
 20
921.8604071464
 30
0.0
  0
VERTEX
  5
915
  8
BGTBAS-0
 10
445.2485527139
 20
910.1327336789
 30
0.0
  0
VERTEX
  5
916
  8
BGTBAS-0
 10
446.8620475799
 20
896.0993803676
 30
0.0
  0
VERTEX
  5
917
  8
BGTBAS-0
 10
448.4720012913
 20
880.9117535455
 30
0.0
  0
SEQEND
  5
A87
  8
BGTBAS-0
  0
ARC
  5
200
  8
BGTBAS-0
 10
301.8156670914
 20
826.2558979251
 30
0.0
 40
156.5098812041826
 50
20.4394091137
 51
26.0337078399
  0
POLYLINE
  5
201
  8
BGTBAS-0
 66
     1
 10
0.0
 20
0.0
 30
0.0
 70
   128
  0
VERTEX
  5
918
  8
BGTBAS-0
 10
791.3767088885
 20
956.2501828259
 30
0.0
  0
VERTEX
  5
919
  8
BGTBAS-0
 10
791.5546436146
 20
956.3640305128
 30
0.0
  0
VERTEX
  5
91A
  8
BGTBAS-0
 10
793.0265981643
 20
954.8279438841
 30
0.0
  0
VERTEX
  5
91B
  8
BGTBAS-0
 10
794.4985527139
 20
950.8429951658
 30
0.0
  0
VERTEX
  5
91C
  8
BGTBAS-0
 10
796.0265981643
 20
944.4126644853
 30
0.0
  0
VERTEX
  5
91D
  8
BGTBAS-0
 10
797.5546436146
 20
935.7316859768
 30
0.0
  0
VERTEX
  5
91E
  8
BGTBAS-0
 10
799.0265981643
 20
925.1600255924
 30
0.0
  0
VERTEX
  5
91F
  8
BGTBAS-0
 10
800.4985527139
 20
912.8610039304
 30
0.0
  0
VERTEX
  5
920
  8
BGTBAS-0
 10
801.4677602781
 20
904.1704726949
 30
0.0
  0
VERTEX
  5
921
  8
BGTBAS-0
 10
802.4454283662
 20
894.9480602024
 30
0.0
  0
SEQEND
  5
A88
  8
BGTBAS-0
  0
POLYLINE
  5
202
  8
BGTBAS-0
 66
     1
 10
0.0
 20
0.0
 30
0.0
 70
   128
  0
VERTEX
  5
922
  8
BGTBAS-0
 10
797.045602039
 20
950.8775165305
 30
0.0
  0
VERTEX
  5
923
  8
BGTBAS-0
 10
797.7765981643
 20
950.1501091849
 30
0.0
  0
VERTEX
  5
924
  8
BGTBAS-0
 10
799.2485527139
 20
946.3502803337
 30
0.0
  0
VERTEX
  5
925
  8
BGTBAS-0
 10
800.7765981643
 20
940.2186691714
 30
0.0
  0
VERTEX
  5
926
  8
BGTBAS-0
 10
802.3046436146
 20
931.9409635031
 30
0.0
  0
VERTEX
  5
927
  8
BGTBAS-0
 10
803.7765981643
 20
921.8604071464
 30
0.0
  0
VERTEX
  5
928
  8
BGTBAS-0
 10
805.2485527139
 20
910.1327336789
 30
0.0
  0
VERTEX
  5
929
  8
BGTBAS-0
 10
806.8620475799
 20
896.0993803676
 30
0.0
  0
VERTEX
  5
92A
  8
BGTBAS-0
 10
808.4720012913
 20
880.9117535455
 30
0.0
  0
SEQEND
  5
A89
  8
BGTBAS-0
  0
ARC
  5
203
  8
BGTBAS-0
 10
661.8156670913
 20
826.2558979251
 30
0.0
 40
156.5098812042816
 50
20.4394091137
 51
26.0337078399
  0
POLYLINE
  5
204
  8
BGTBAS-0
 66
     1
 10
0.0
 20
0.0
 30
0.0
 70
   128
  0
VERTEX
  5
92B
  8
BGTBAS-0
 10
551.3767088885
 20
956.2501828259
 30
0.0
  0
VERTEX
  5
92C
  8
BGTBAS-0
 10
551.5546436146
 20
956.3640305128
 30
0.0
  0
VERTEX
  5
92D
  8
BGTBAS-0
 10
553.0265981643
 20
954.8279438841
 30
0.0
  0
VERTEX
  5
92E
  8
BGTBAS-0
 10
554.4985527139
 20
950.8429951658
 30
0.0
  0
VERTEX
  5
92F
  8
BGTBAS-0
 10
556.0265981643
 20
944.4126644853
 30
0.0
  0
VERTEX
  5
930
  8
BGTBAS-0
 10
557.5546436146
 20
935.7316859768
 30
0.0
  0
VERTEX
  5
931
  8
BGTBAS-0
 10
559.0265981643
 20
925.1600255924
 30
0.0
  0
VERTEX
  5
932
  8
BGTBAS-0
 10
560.4985527139
 20
912.8610039304
 30
0.0
  0
VERTEX
  5
933
  8
BGTBAS-0
 10
561.4677602781
 20
904.1704726949
 30
0.0
  0
VERTEX
  5
934
  8
BGTBAS-0
 10
562.4454283662
 20
894.9480602024
 30
0.0
  0
SEQEND
  5
A8A
  8
BGTBAS-0
  0
POLYLINE
  5
205
  8
BGTBAS-0
 66
     1
 10
0.0
 20
0.0
 30
0.0
 70
   128
  0
VERTEX
  5
935
  8
BGTBAS-0
 10
557.045602039
 20
950.8775165305
 30
0.0
  0
VERTEX
  5
936
  8
BGTBAS-0
 10
557.7765981643
 20
950.1501091849
 30
0.0
  0
VERTEX
  5
937
  8
BGTBAS-0
 10
559.2485527139
 20
946.3502803337
 30
0.0
  0
VERTEX
  5
938
  8
BGTBAS-0
 10
560.7765981643
 20
940.2186691714
 30
0.0
  0
VERTEX
  5
939
  8
BGTBAS-0
 10
562.3046436146
 20
931.9409635031
 30
0.0
  0
VERTEX
  5
93A
  8
BGTBAS-0
 10
563.7765981643
 20
921.8604071464
 30
0.0
  0
VERTEX
  5
93B
  8
BGTBAS-0
 10
565.2485527139
 20
910.1327336789
 30
0.0
  0
VERTEX
  5
93C
  8
BGTBAS-0
 10
566.8620475799
 20
896.0993803676
 30
0.0
  0
VERTEX
  5
93D
  8
BGTBAS-0
 10
568.4720012913
 20
880.9117535455
 30
0.0
  0
SEQEND
  5
A8B
  8
BGTBAS-0
  0
ARC
  5
206
  8
BGTBAS-0
 10
421.8156670913
 20
826.2558979251
 30
0.0
 40
156.5098812042937
 50
20.4394091137
 51
26.0337078399
  0
POLYLINE
  5
207
  8
BGTBAS-0
 66
     1
 10
0.0
 20
0.0
 30
0.0
 70
   128
  0
VERTEX
  5
93E
  8
BGTBAS-0
 10
611.3767088885
 20
956.2501828259
 30
0.0
  0
VERTEX
  5
93F
  8
BGTBAS-0
 10
611.5546436146
 20
956.3640305128
 30
0.0
  0
VERTEX
  5
940
  8
BGTBAS-0
 10
613.0265981643
 20
954.8279438841
 30
0.0
  0
VERTEX
  5
941
  8
BGTBAS-0
 10
614.4985527139
 20
950.8429951658
 30
0.0
  0
VERTEX
  5
942
  8
BGTBAS-0
 10
616.0265981643
 20
944.4126644853
 30
0.0
  0
VERTEX
  5
943
  8
BGTBAS-0
 10
617.5546436146
 20
935.7316859768
 30
0.0
  0
VERTEX
  5
944
  8
BGTBAS-0
 10
619.0265981643
 20
925.1600255924
 30
0.0
  0
VERTEX
  5
945
  8
BGTBAS-0
 10
620.4985527139
 20
912.8610039304
 30
0.0
  0
VERTEX
  5
946
  8
BGTBAS-0
 10
621.4677602781
 20
904.1704726949
 30
0.0
  0
VERTEX
  5
947
  8
BGTBAS-0
 10
622.4454283662
 20
894.9480602024
 30
0.0
  0
SEQEND
  5
A8C
  8
BGTBAS-0
  0
POLYLINE
  5
208
  8
BGTBAS-0
 66
     1
 10
0.0
 20
0.0
 30
0.0
 70
   128
  0
VERTEX
  5
948
  8
BGTBAS-0
 10
617.045602039
 20
950.8775165305
 30
0.0
  0
VERTEX
  5
949
  8
BGTBAS-0
 10
617.7765981643
 20
950.1501091849
 30
0.0
  0
VERTEX
  5
94A
  8
BGTBAS-0
 10
619.2485527139
 20
946.3502803337
 30
0.0
  0
VERTEX
  5
94B
  8
BGTBAS-0
 10
620.7765981643
 20
940.2186691714
 30
0.0
  0
VERTEX
  5
94C
  8
BGTBAS-0
 10
622.3046436146
 20
931.9409635031
 30
0.0
  0
VERTEX
  5
94D
  8
BGTBAS-0
 10
623.7765981643
 20
921.8604071464
 30
0.0
  0
VERTEX
  5
94E
  8
BGTBAS-0
 10
625.2485527139
 20
910.1327336789
 30
0.0
  0
VERTEX
  5
94F
  8
BGTBAS-0
 10
626.8620475799
 20
896.0993803676
 30
0.0
  0
VERTEX
  5
950
  8
BGTBAS-0
 10
628.4720012913
 20
880.9117535455
 30
0.0
  0
SEQEND
  5
A8D
  8
BGTBAS-0
  0
ARC
  5
209
  8
BGTBAS-0
 10
481.8156670914
 20
826.2558979251
 30
0.0
 40
156.5098812042119
 50
20.4394091137
 51
26.0337078399
  0
POLYLINE
  5
20A
  8
BGTBAS-0
 66
     1
 10
0.0
 20
0.0
 30
0.0
 70
   128
  0
VERTEX
  5
951
  8
BGTBAS-0
 10
731.3767088885
 20
956.2501828259
 30
0.0
  0
VERTEX
  5
952
  8
BGTBAS-0
 10
731.5546436146
 20
956.3640305128
 30
0.0
  0
VERTEX
  5
953
  8
BGTBAS-0
 10
733.0265981643
 20
954.8279438841
 30
0.0
  0
VERTEX
  5
954
  8
BGTBAS-0
 10
734.4985527139
 20
950.8429951658
 30
0.0
  0
VERTEX
  5
955
  8
BGTBAS-0
 10
736.0265981643
 20
944.4126644853
 30
0.0
  0
VERTEX
  5
956
  8
BGTBAS-0
 10
737.5546436146
 20
935.7316859768
 30
0.0
  0
VERTEX
  5
957
  8
BGTBAS-0
 10
739.0265981643
 20
925.1600255924
 30
0.0
  0
VERTEX
  5
958
  8
BGTBAS-0
 10
740.4985527139
 20
912.8610039304
 30
0.0
  0
VERTEX
  5
959
  8
BGTBAS-0
 10
741.4677602781
 20
904.1704726949
 30
0.0
  0
VERTEX
  5
95A
  8
BGTBAS-0
 10
742.4454283662
 20
894.9480602024
 30
0.0
  0
SEQEND
  5
A8E
  8
BGTBAS-0
  0
POLYLINE
  5
20B
  8
BGTBAS-0
 66
     1
 10
0.0
 20
0.0
 30
0.0
 70
   128
  0
VERTEX
  5
95B
  8
BGTBAS-0
 10
737.045602039
 20
950.8775165305
 30
0.0
  0
VERTEX
  5
95C
  8
BGTBAS-0
 10
737.7765981643
 20
950.1501091849
 30
0.0
  0
VERTEX
  5
95D
  8
BGTBAS-0
 10
739.2485527139
 20
946.3502803337
 30
0.0
  0
VERTEX
  5
95E
  8
BGTBAS-0
 10
740.7765981643
 20
940.2186691714
 30
0.0
  0
VERTEX
  5
95F
  8
BGTBAS-0
 10
742.3046436146
 20
931.9409635031
 30
0.0
  0
VERTEX
  5
960
  8
BGTBAS-0
 10
743.7765981643
 20
921.8604071464
 30
0.0
  0
VERTEX
  5
961
  8
BGTBAS-0
 10
745.2485527139
 20
910.1327336789
 30
0.0
  0
VERTEX
  5
962
  8
BGTBAS-0
 10
746.8620475799
 20
896.0993803676
 30
0.0
  0
VERTEX
  5
963
  8
BGTBAS-0
 10
748.4720012913
 20
880.9117535455
 30
0.0
  0
SEQEND
  5
A8F
  8
BGTBAS-0
  0
ARC
  5
20C
  8
BGTBAS-0
 10
601.8156670913
 20
826.2558979251
 30
0.0
 40
156.5098812043257
 50
20.4394091137
 51
26.0337078399
  0
POLYLINE
  5
20D
  8
BGTBAS-0
 66
     1
 10
0.0
 20
0.0
 30
0.0
 70
   128
  0
VERTEX
  5
964
  8
BGTBAS-0
 10
671.3767088885
 20
956.2501828259
 30
0.0
  0
VERTEX
  5
965
  8
BGTBAS-0
 10
671.5546436146
 20
956.3640305128
 30
0.0
  0
VERTEX
  5
966
  8
BGTBAS-0
 10
673.0265981643
 20
954.8279438841
 30
0.0
  0
VERTEX
  5
967
  8
BGTBAS-0
 10
674.4985527139
 20
950.8429951658
 30
0.0
  0
VERTEX
  5
968
  8
BGTBAS-0
 10
676.0265981643
 20
944.4126644853
 30
0.0
  0
VERTEX
  5
969
  8
BGTBAS-0
 10
677.5546436146
 20
935.7316859768
 30
0.0
  0
VERTEX
  5
96A
  8
BGTBAS-0
 10
679.0265981643
 20
925.1600255924
 30
0.0
  0
VERTEX
  5
96B
  8
BGTBAS-0
 10
680.4985527139
 20
912.8610039304
 30
0.0
  0
VERTEX
  5
96C
  8
BGTBAS-0
 10
681.4677602781
 20
904.1704726949
 30
0.0
  0
VERTEX
  5
96D
  8
BGTBAS-0
 10
682.4454283662
 20
894.9480602024
 30
0.0
  0
SEQEND
  5
A90
  8
BGTBAS-0
  0
POLYLINE
  5
20E
  8
BGTBAS-0
 66
     1
 10
0.0
 20
0.0
 30
0.0
 70
   128
  0
VERTEX
  5
96E
  8
BGTBAS-0
 10
677.045602039
 20
950.8775165305
 30
0.0
  0
VERTEX
  5
96F
  8
BGTBAS-0
 10
677.7765981643
 20
950.1501091849
 30
0.0
  0
VERTEX
  5
970
  8
BGTBAS-0
 10
679.2485527139
 20
946.3502803337
 30
0.0
  0
VERTEX
  5
971
  8
BGTBAS-0
 10
680.7765981643
 20
940.2186691714
 30
0.0
  0
VERTEX
  5
972
  8
BGTBAS-0
 10
682.3046436146
 20
931.9409635031
 30
0.0
  0
VERTEX
  5
973
  8
BGTBAS-0
 10
683.7765981643
 20
921.8604071464
 30
0.0
  0
VERTEX
  5
974
  8
BGTBAS-0
 10
685.2485527139
 20
910.1327336789
 30
0.0
  0
VERTEX
  5
975
  8
BGTBAS-0
 10
686.8620475799
 20
896.0993803676
 30
0.0
  0
VERTEX
  5
976
  8
BGTBAS-0
 10
688.4720012913
 20
880.9117535455
 30
0.0
  0
SEQEND
  5
A91
  8
BGTBAS-0
  0
ARC
  5
20F
  8
BGTBAS-0
 10
541.8156670914
 20
826.2558979251
 30
0.0
 40
156.509881204165
 50
20.4394091137
 51
26.0337078399
  0
POLYLINE
  5
210
  8
BGTBAS-0
 66
     1
 10
0.0
 20
0.0
 30
0.0
 70
   128
  0
VERTEX
  5
977
  8
BGTBAS-0
 10
911.3767088885
 20
956.2501828259
 30
0.0
  0
VERTEX
  5
978
  8
BGTBAS-0
 10
911.5546436146
 20
956.3640305128
 30
0.0
  0
VERTEX
  5
979
  8
BGTBAS-0
 10
913.0265981643
 20
954.8279438841
 30
0.0
  0
VERTEX
  5
97A
  8
BGTBAS-0
 10
914.4985527139
 20
950.8429951658
 30
0.0
  0
VERTEX
  5
97B
  8
BGTBAS-0
 10
916.0265981643
 20
944.4126644853
 30
0.0
  0
VERTEX
  5
97C
  8
BGTBAS-0
 10
917.5546436146
 20
935.7316859768
 30
0.0
  0
VERTEX
  5
97D
  8
BGTBAS-0
 10
919.0265981643
 20
925.1600255924
 30
0.0
  0
VERTEX
  5
97E
  8
BGTBAS-0
 10
920.4985527139
 20
912.8610039304
 30
0.0
  0
VERTEX
  5
97F
  8
BGTBAS-0
 10
921.4677602781
 20
904.1704726949
 30
0.0
  0
VERTEX
  5
980
  8
BGTBAS-0
 10
922.4454283662
 20
894.9480602024
 30
0.0
  0
SEQEND
  5
A92
  8
BGTBAS-0
  0
POLYLINE
  5
211
  8
BGTBAS-0
 66
     1
 10
0.0
 20
0.0
 30
0.0
 70
   128
  0
VERTEX
  5
981
  8
BGTBAS-0
 10
917.045602039
 20
950.8775165305
 30
0.0
  0
VERTEX
  5
982
  8
BGTBAS-0
 10
917.7765981643
 20
950.1501091849
 30
0.0
  0
VERTEX
  5
983
  8
BGTBAS-0
 10
919.2485527139
 20
946.3502803337
 30
0.0
  0
VERTEX
  5
984
  8
BGTBAS-0
 10
920.7765981643
 20
940.2186691714
 30
0.0
  0
VERTEX
  5
985
  8
BGTBAS-0
 10
922.3046436146
 20
931.9409635031
 30
0.0
  0
VERTEX
  5
986
  8
BGTBAS-0
 10
923.7765981643
 20
921.8604071464
 30
0.0
  0
VERTEX
  5
987
  8
BGTBAS-0
 10
925.2485527139
 20
910.1327336789
 30
0.0
  0
VERTEX
  5
988
  8
BGTBAS-0
 10
926.8620475799
 20
896.0993803676
 30
0.0
  0
VERTEX
  5
989
  8
BGTBAS-0
 10
928.4720012913
 20
880.9117535455
 30
0.0
  0
SEQEND
  5
A93
  8
BGTBAS-0
  0
ARC
  5
212
  8
BGTBAS-0
 10
781.8156670913
 20
826.2558979251
 30
0.0
 40
156.5098812042671
 50
20.4394091137
 51
26.0337078399
  0
POLYLINE
  5
213
  8
BGTBAS-0
 66
     1
 10
0.0
 20
0.0
 30
0.0
 70
   128
  0
VERTEX
  5
98A
  8
BGTBAS-0
 10
1391.3767088885
 20
956.2501828259
 30
0.0
  0
VERTEX
  5
98B
  8
BGTBAS-0
 10
1391.5546436146
 20
956.3640305128
 30
0.0
  0
VERTEX
  5
98C
  8
BGTBAS-0
 10
1393.0265981643
 20
954.8279438841
 30
0.0
  0
VERTEX
  5
98D
  8
BGTBAS-0
 10
1394.4985527139
 20
950.8429951658
 30
0.0
  0
VERTEX
  5
98E
  8
BGTBAS-0
 10
1396.0265981643
 20
944.4126644853
 30
0.0
  0
VERTEX
  5
98F
  8
BGTBAS-0
 10
1397.5546436146
 20
935.7316859768
 30
0.0
  0
VERTEX
  5
990
  8
BGTBAS-0
 10
1399.0265981643
 20
925.1600255924
 30
0.0
  0
VERTEX
  5
991
  8
BGTBAS-0
 10
1400.4985527139
 20
912.8610039304
 30
0.0
  0
VERTEX
  5
992
  8
BGTBAS-0
 10
1401.4677602781
 20
904.1704726949
 30
0.0
  0
VERTEX
  5
993
  8
BGTBAS-0
 10
1402.4454283662
 20
894.9480602024
 30
0.0
  0
SEQEND
  5
A94
  8
BGTBAS-0
  0
POLYLINE
  5
214
  8
BGTBAS-0
 66
     1
 10
0.0
 20
0.0
 30
0.0
 70
   128
  0
VERTEX
  5
994
  8
BGTBAS-0
 10
1397.045602039
 20
950.8775165305
 30
0.0
  0
VERTEX
  5
995
  8
BGTBAS-0
 10
1397.7765981643
 20
950.1501091849
 30
0.0
  0
VERTEX
  5
996
  8
BGTBAS-0
 10
1399.2485527139
 20
946.3502803337
 30
0.0
  0
VERTEX
  5
997
  8
BGTBAS-0
 10
1400.7765981643
 20
940.2186691714
 30
0.0
  0
VERTEX
  5
998
  8
BGTBAS-0
 10
1402.3046436146
 20
931.9409635031
 30
0.0
  0
VERTEX
  5
999
  8
BGTBAS-0
 10
1403.7765981643
 20
921.8604071464
 30
0.0
  0
VERTEX
  5
99A
  8
BGTBAS-0
 10
1405.2485527139
 20
910.1327336789
 30
0.0
  0
VERTEX
  5
99B
  8
BGTBAS-0
 10
1406.8620475799
 20
896.0993803676
 30
0.0
  0
VERTEX
  5
99C
  8
BGTBAS-0
 10
1408.4720012913
 20
880.9117535455
 30
0.0
  0
SEQEND
  5
A95
  8
BGTBAS-0
  0
ARC
  5
215
  8
BGTBAS-0
 10
1261.8156670914
 20
826.2558979251
 30
0.0
 40
156.5098812042452
 50
20.4394091137
 51
26.0337078399
  0
LINE
  5
216
  8
BGTBAS-0
 10
1454.7816448069
 20
827.3510403315
 30
0.0
 11
1455.6125515785
 21
825.1615767474
 31
0.0
  0
LINE
  5
217
  8
BGTBAS-0
 10
1455.6125515785
 20
819.3475226631
 30
0.0
 11
1455.6125515785
 21
825.1615767474
 31
0.0
  0
LINE
  5
218
  8
BGTBAS-0
 10
1454.7816311263
 20
827.3511731564
 30
0.0
 11
1455.6122534289
 21
819.3503713719
 31
0.0
  0
LINE
  5
219
  8
BGTBAS-0
 10
448.4720012913
 20
880.9117535455
 30
0.0
 11
489.4642669958
 21
880.9117535455
 31
0.0
  0
LINE
  5
21A
  8
BGTBAS-0
 10
1454.7788245584
 20
827.3510403315
 30
0.0
 11
1413.7816448069
 21
827.3510403315
 31
0.0
  0
LINE
  5
21B
  8
BGTBAS-0
 10
1400.7973962788
 20
813.3147336746
 30
0.0
 11
1410.2973962788
 21
813.3147336746
 31
0.0
  0
LINE
  5
21C
  8
BGTBAS-0
 10
1394.7816095449
 20
827.3510403315
 30
0.0
 11
1353.7816448069
 21
827.3510403315
 31
0.0
  0
LINE
  5
21D
  8
BGTBAS-0
 10
1340.7973962788
 20
813.3147336746
 30
0.0
 11
1350.2973962788
 21
813.3147336746
 31
0.0
  0
LINE
  5
21E
  8
BGTBAS-0
 10
1334.7812442059
 20
827.3510403315
 30
0.0
 11
1293.7816448069
 21
827.3510403315
 31
0.0
  0
LINE
  5
21F
  8
BGTBAS-0
 10
1280.7973962788
 20
813.3147336746
 30
0.0
 11
1290.2973962788
 21
813.3147336746
 31
0.0
  0
LINE
  5
220
  8
BGTBAS-0
 10
1274.7829597701
 20
827.3510403315
 30
0.0
 11
1233.7816448069
 21
827.3510403315
 31
0.0
  0
LINE
  5
221
  8
BGTBAS-0
 10
1220.7973962788
 20
813.3147336746
 30
0.0
 11
1230.2973962788
 21
813.3147336746
 31
0.0
  0
LINE
  5
222
  8
BGTBAS-0
 10
1214.7814093987
 20
827.3510403315
 30
0.0
 11
1173.7816448069
 21
827.3510403315
 31
0.0
  0
LINE
  5
223
  8
BGTBAS-0
 10
1160.7973962788
 20
813.3147336746
 30
0.0
 11
1170.2973962788
 21
813.3147336746
 31
0.0
  0
LINE
  5
224
  8
BGTBAS-0
 10
1154.7808607742
 20
827.3510403315
 30
0.0
 11
1113.7816448069
 21
827.3510403315
 31
0.0
  0
LINE
  5
225
  8
BGTBAS-0
 10
1100.7973962788
 20
813.3147336746
 30
0.0
 11
1110.2973962788
 21
813.3147336746
 31
0.0
  0
LINE
  5
226
  8
BGTBAS-0
 10
1094.7822274275
 20
827.3510403315
 30
0.0
 11
1053.7816448069
 21
827.3510403315
 31
0.0
  0
LINE
  5
227
  8
BGTBAS-0
 10
1040.7973962788
 20
813.3147336746
 30
0.0
 11
1050.2973962788
 21
813.3147336746
 31
0.0
  0
LINE
  5
228
  8
BGTBAS-0
 10
1034.7818637758
 20
827.3510403315
 30
0.0
 11
993.7816448069
 21
827.3510403315
 31
0.0
  0
LINE
  5
229
  8
BGTBAS-0
 10
980.7973962788
 20
813.3147336746
 30
0.0
 11
990.2973962788
 21
813.3147336746
 31
0.0
  0
LINE
  5
22A
  8
BGTBAS-0
 10
974.7819483102
 20
827.3510403315
 30
0.0
 11
933.7816448069
 21
827.3510403315
 31
0.0
  0
LINE
  5
22B
  8
BGTBAS-0
 10
920.7973962788
 20
813.3147336746
 30
0.0
 11
930.2973962788
 21
813.3147336746
 31
0.0
  0
LINE
  5
22C
  8
BGTBAS-0
 10
914.7762527582
 20
827.3510403315
 30
0.0
 11
873.7816448069
 21
827.3510403315
 31
0.0
  0
LINE
  5
22D
  8
BGTBAS-0
 10
860.7973962788
 20
813.3147336746
 30
0.0
 11
870.2973962788
 21
813.3147336746
 31
0.0
  0
LINE
  5
22E
  8
BGTBAS-0
 10
854.7819119335
 20
827.3510403315
 30
0.0
 11
813.7816448069
 21
827.3510403315
 31
0.0
  0
LINE
  5
22F
  8
BGTBAS-0
 10
800.7973962788
 20
813.3147336746
 30
0.0
 11
810.2973962788
 21
813.3147336746
 31
0.0
  0
LINE
  5
230
  8
BGTBAS-0
 10
794.7816280335
 20
827.3510403315
 30
0.0
 11
753.7816448069
 21
827.3510403315
 31
0.0
  0
LINE
  5
231
  8
BGTBAS-0
 10
740.7973962788
 20
813.3147336746
 30
0.0
 11
750.2973962788
 21
813.3147336746
 31
0.0
  0
LINE
  5
232
  8
BGTBAS-0
 10
734.7802842652
 20
827.3510403315
 30
0.0
 11
693.7816448069
 21
827.3510403315
 31
0.0
  0
LINE
  5
233
  8
BGTBAS-0
 10
680.7973962788
 20
813.3147336746
 30
0.0
 11
690.2973962788
 21
813.3147336746
 31
0.0
  0
LINE
  5
234
  8
BGTBAS-0
 10
674.7781901901
 20
827.3510403315
 30
0.0
 11
633.7816448069
 21
827.3510403315
 31
0.0
  0
LINE
  5
235
  8
BGTBAS-0
 10
620.7973962788
 20
813.3147336746
 30
0.0
 11
630.2973962788
 21
813.3147336746
 31
0.0
  0
LINE
  5
236
  8
BGTBAS-0
 10
614.781674654
 20
827.3510403315
 30
0.0
 11
573.7816448069
 21
827.3510403315
 31
0.0
  0
LINE
  5
237
  8
BGTBAS-0
 10
560.7973962788
 20
813.3147336746
 30
0.0
 11
570.2973962788
 21
813.3147336746
 31
0.0
  0
LINE
  5
238
  8
BGTBAS-0
 10
554.775583363
 20
827.3510403315
 30
0.0
 11
513.7816448069
 21
827.3510403315
 31
0.0
  0
LINE
  5
239
  8
BGTBAS-0
 10
500.7973962788
 20
813.3147336746
 30
0.0
 11
510.2973962788
 21
813.3147336746
 31
0.0
  0
LINE
  5
23A
  8
BGTBAS-0
 10
494.7816132047
 20
827.3510403315
 30
0.0
 11
453.7816448069
 21
827.3510403315
 31
0.0
  0
LINE
  5
23B
  8
BGTBAS-0
 10
440.7973962788
 20
813.3147336746
 30
0.0
 11
450.2973962788
 21
813.3147336746
 31
0.0
  0
LINE
  5
23C
  8
BGTBAS-0
 10
434.7819004234
 20
827.3510403315
 30
0.0
 11
393.7816448069
 21
827.3510403315
 31
0.0
  0
LINE
  5
23D
  8
BGTBAS-0
 10
380.7973962788
 20
813.3147336746
 30
0.0
 11
390.2973962788
 21
813.3147336746
 31
0.0
  0
LINE
  5
23E
  8
BGTBAS-0
 10
374.7816665858
 20
827.3510403315
 30
0.0
 11
333.7816448069
 21
827.3510403315
 31
0.0
  0
LINE
  5
23F
  8
BGTBAS-0
 10
320.7973962788
 20
813.3147336746
 30
0.0
 11
330.2973962788
 21
813.3147336746
 31
0.0
  0
LINE
  5
240
  8
BGTBAS-0
 10
314.7806018611
 20
827.3510403315
 30
0.0
 11
273.7816448069
 21
827.3510403315
 31
0.0
  0
LINE
  5
241
  8
BGTBAS-0
 10
260.7973962788
 20
813.3147336746
 30
0.0
 11
270.2973962788
 21
813.3147336746
 31
0.0
  0
LINE
  5
242
  8
BGTBAS-0
 10
254.783858678
 20
827.3510403315
 30
0.0
 11
205.6125515785
 21
827.3510403315
 31
0.0
  0
LINE
  5
243
  8
BGTBAS-0
 10
205.6125515785
 20
880.9117535455
 30
0.0
 11
205.6125515785
 21
827.3510403315
 31
0.0
  0
LINE
  5
244
  8
BGTBAS-0
 10
205.6125515785
 20
880.9117535455
 30
0.0
 11
249.4722269877
 21
880.9117535455
 31
0.0
  0
LINE
  5
245
  8
BGTBAS-0
 10
262.4454283663
 20
894.9480602024
 30
0.0
 11
252.9454283663
 21
894.9480602024
 31
0.0
  0
LINE
  5
246
  8
BGTBAS-0
 10
268.4720012913
 20
880.9117535455
 30
0.0
 11
309.4719553468
 21
880.9117535455
 31
0.0
  0
LINE
  5
247
  8
BGTBAS-0
 10
322.4454283663
 20
894.9480602024
 30
0.0
 11
312.9454283663
 21
894.9480602024
 31
0.0
  0
LINE
  5
248
  8
BGTBAS-0
 10
328.4720012913
 20
880.9117535455
 30
0.0
 11
369.4737565677
 21
880.9117535455
 31
0.0
  0
LINE
  5
249
  8
BGTBAS-0
 10
382.4454283663
 20
894.9480602024
 30
0.0
 11
372.9454283663
 21
894.9480602024
 31
0.0
  0
LINE
  5
24A
  8
BGTBAS-0
 10
388.4720012913
 20
880.9117535455
 30
0.0
 11
429.4717142091
 21
880.9117535455
 31
0.0
  0
LINE
  5
24B
  8
BGTBAS-0
 10
442.4454283663
 20
894.9480602024
 30
0.0
 11
432.9454283663
 21
894.9480602024
 31
0.0
  0
LINE
  5
24C
  8
BGTBAS-0
 10
502.4454283663
 20
894.9480602024
 30
0.0
 11
492.9454283663
 21
894.9480602024
 31
0.0
  0
LINE
  5
24D
  8
BGTBAS-0
 10
508.4720012913
 20
880.9117535455
 30
0.0
 11
549.4719515078
 21
880.9117535455
 31
0.0
  0
LINE
  5
24E
  8
BGTBAS-0
 10
562.4454283663
 20
894.9480602024
 30
0.0
 11
552.9454283663
 21
894.9480602024
 31
0.0
  0
LINE
  5
24F
  8
BGTBAS-0
 10
568.4720012913
 20
880.9117535455
 30
0.0
 11
609.4737512204
 21
880.9117535455
 31
0.0
  0
LINE
  5
250
  8
BGTBAS-0
 10
622.4454283663
 20
894.9480602024
 30
0.0
 11
612.9454283663
 21
894.9480602024
 31
0.0
  0
LINE
  5
251
  8
BGTBAS-0
 10
628.4720012913
 20
880.9117535455
 30
0.0
 11
669.4719350128
 21
880.9117535455
 31
0.0
  0
LINE
  5
252
  8
BGTBAS-0
 10
682.4454283663
 20
894.9480602024
 30
0.0
 11
672.9454283663
 21
894.9480602024
 31
0.0
  0
LINE
  5
253
  8
BGTBAS-0
 10
688.4720012913
 20
880.9117535455
 30
0.0
 11
729.4710013211
 21
880.9117535455
 31
0.0
  0
LINE
  5
254
  8
BGTBAS-0
 10
742.4454283663
 20
894.9480602024
 30
0.0
 11
732.9454283663
 21
894.9480602024
 31
0.0
  0
LINE
  5
255
  8
BGTBAS-0
 10
748.4720012913
 20
880.9117535455
 30
0.0
 11
789.4719668144
 21
880.9117535455
 31
0.0
  0
LINE
  5
256
  8
BGTBAS-0
 10
802.4454283663
 20
894.9480602024
 30
0.0
 11
792.9454283663
 21
894.9480602024
 31
0.0
  0
LINE
  5
257
  8
BGTBAS-0
 10
808.4720012913
 20
880.9117535455
 30
0.0
 11
849.4718278006
 21
880.9117535455
 31
0.0
  0
LINE
  5
258
  8
BGTBAS-0
 10
862.4454283662
 20
894.9480602024
 30
0.0
 11
852.9454283663
 21
894.9480602024
 31
0.0
  0
LINE
  5
259
  8
BGTBAS-0
 10
868.4720012913
 20
880.9117535455
 30
0.0
 11
909.473869785
 21
880.9117535455
 31
0.0
  0
LINE
  5
25A
  8
BGTBAS-0
 10
922.4454283663
 20
894.9480602024
 30
0.0
 11
912.9454283663
 21
894.9480602024
 31
0.0
  0
LINE
  5
25B
  8
BGTBAS-0
 10
928.4720012913
 20
880.9117535455
 30
0.0
 11
969.4670498981
 21
880.9117535455
 31
0.0
  0
LINE
  5
25C
  8
BGTBAS-0
 10
982.4454283662
 20
894.9480602024
 30
0.0
 11
972.9454283662
 21
894.9480602024
 31
0.0
  0
LINE
  5
25D
  8
BGTBAS-0
 10
988.4720012913
 20
880.9117535455
 30
0.0
 11
1029.4653070304
 21
880.9117535455
 31
0.0
  0
LINE
  5
25E
  8
BGTBAS-0
 10
1042.4454283662
 20
894.9480602024
 30
0.0
 11
1032.9454283662
 21
894.9480602024
 31
0.0
  0
LINE
  5
25F
  8
BGTBAS-0
 10
1048.4720012913
 20
880.9117535455
 30
0.0
 11
1089.4726219584
 21
880.9117535455
 31
0.0
  0
LINE
  5
260
  8
BGTBAS-0
 10
1102.4454283662
 20
894.9480602024
 30
0.0
 11
1092.9454283662
 21
894.9480602024
 31
0.0
  0
LINE
  5
261
  8
BGTBAS-0
 10
1108.4720012913
 20
880.9117535455
 30
0.0
 11
1149.467985898
 21
880.9117535455
 31
0.0
  0
LINE
  5
262
  8
BGTBAS-0
 10
1162.4454283662
 20
894.9480602024
 30
0.0
 11
1152.9454283662
 21
894.9480602024
 31
0.0
  0
LINE
  5
263
  8
BGTBAS-0
 10
1168.4720012913
 20
880.9117535455
 30
0.0
 11
1209.4714099969
 21
880.9117535455
 31
0.0
  0
LINE
  5
264
  8
BGTBAS-0
 10
1222.4454283662
 20
894.9480602024
 30
0.0
 11
1212.9454283662
 21
894.9480602024
 31
0.0
  0
LINE
  5
265
  8
BGTBAS-0
 10
1228.4720012913
 20
880.9117535455
 30
0.0
 11
1269.4708938547
 21
880.9117535455
 31
0.0
  0
LINE
  5
266
  8
BGTBAS-0
 10
1282.4454283662
 20
894.9480602024
 30
0.0
 11
1272.9454283662
 21
894.9480602024
 31
0.0
  0
LINE
  5
267
  8
BGTBAS-0
 10
1288.4720012913
 20
880.9117535455
 30
0.0
 11
1329.4726129402
 21
880.9117535455
 31
0.0
  0
LINE
  5
268
  8
BGTBAS-0
 10
1342.4454283662
 20
894.9480602024
 30
0.0
 11
1332.9454283662
 21
894.9480602024
 31
0.0
  0
LINE
  5
269
  8
BGTBAS-0
 10
1348.4720012913
 20
880.9117535455
 30
0.0
 11
1389.4710341412
 21
880.9117535455
 31
0.0
  0
LINE
  5
26A
  8
BGTBAS-0
 10
1402.4454283662
 20
894.9480602024
 30
0.0
 11
1392.9454283662
 21
894.9480602024
 31
0.0
  0
LINE
  5
26B
  8
BGTBAS-0
 10
1408.4720012913
 20
880.9117535455
 30
0.0
 11
1449.4710550526
 21
880.9117535455
 31
0.0
  0
LINE
  5
26C
  8
BGTBAS-0
 10
1455.6125515785
 20
894.9480602024
 30
0.0
 11
1452.9454283662
 21
894.9480602024
 31
0.0
  0
LINE
  5
26D
  8
BGTBAS-0
 10
1455.6125515785
 20
894.9480602024
 30
0.0
 11
1455.6125515785
 21
825.1615767474
 31
0.0
  0
LINE
  5
26E
  8
BGTBAS-0
 10
1455.6125515785
 20
756.6313969385
 30
0.0
 11
1455.6125515785
 21
819.3532745828
 31
0.0
  0
LINE
  5
26F
  8
BGTBAS-0
 10
205.6125515785
 20
756.6313969385
 30
0.0
 11
205.6125515785
 21
827.3510403315
 31
0.0
  0
LINE
  5
270
  8
BGTBAS-0
 10
205.6125515785
 20
880.9117535455
 30
0.0
 11
205.6125515785
 21
951.6313969385
 31
0.0
  0
POLYLINE
  5
271
  8
BGTBAS-0
 66
     1
 10
0.0
 20
0.0
 30
0.0
 70
   128
  0
VERTEX
  5
99D
  8
BGTBAS-0
 10
1451.3767088885
 20
956.2501828259
 30
0.0
  0
VERTEX
  5
99E
  8
BGTBAS-0
 10
1451.5546436146
 20
956.3640305128
 30
0.0
  0
VERTEX
  5
99F
  8
BGTBAS-0
 10
1453.0265981643
 20
954.8279438841
 30
0.0
  0
VERTEX
  5
9A0
  8
BGTBAS-0
 10
1454.2958276583
 20
951.5244135756
 30
0.0
  0
VERTEX
  5
9A1
  8
BGTBAS-0
 10
1455.6125515785
 20
946.3778352943
 30
0.0
  0
SEQEND
  5
A96
  8
BGTBAS-0
  0
LINE
  5
272
  8
BGTBAS-0
 10
1455.6125515785
 20
894.9480602024
 30
0.0
 11
1455.6125515785
 21
946.3778352943
 31
0.0
  0
LINE
  5
273
  8
BGTBAS-0
 10
1455.6125515785
 20
946.3778352943
 30
0.0
 11
1455.6125515785
 21
952.469420673
 31
0.0
  0
LINE
  5
274
  8
BGTBAS-0
 10
226.2724584753
 20
756.6313969385
 30
0.0
 11
223.0265981643
 21
753.4348499929
 31
0.0
  0
LINE
  5
275
  8
BGTBAS-0
 10
223.0265981643
 20
753.4348499929
 30
0.0
 11
213.5265981643
 21
753.4348499929
 31
0.0
  0
LINE
  5
276
  8
BGTBAS-0
 10
213.5265981643
 20
753.4348499929
 30
0.0
 11
210.2807378533
 21
756.6313969385
 31
0.0
  0
LINE
  5
277
  8
BGTBAS-7
 10
1046.5760172022
 20
956.3820962702
 30
0.0
 11
1076.5760172022
 21
751.8820962702
 31
0.0
  0
LINE
  5
278
  8
BGTBAS-7
 10
1136.5760172022
 20
751.8820962702
 30
0.0
 11
1106.5760172022
 21
956.3820962702
 31
0.0
  0
POINT
  5
279
  8
0
  6
CONTINUOUS
 62
     7
 10
1305.4957220067
 20
813.3154330063
 30
0.0
  0
POINT
  5
27A
  8
0
  6
CONTINUOUS
 62
     7
 10
1106.5760172022
 20
956.3820962702
 30
0.0
  0
POINT
  5
27B
  8
0
  6
CONTINUOUS
 62
     7
 10
1046.5760172022
 20
956.3820962702
 30
0.0
  0
LINE
  5
27C
  8
BGTBAS-2A
 10
909.792631169
 20
1039.9574982165
 30
0.0
 11
909.792631169
 21
691.5015934623
 31
0.0
  0
LINE
  5
27D
  8
BGTBAS-2A
  6
SLD-DURCHGEHEND
 10
966.6378402915
 20
1029.9574982165
 30
0.0
 11
909.792631169
 21
1029.9574982165
 31
0.0
  0
SOLID
  5
27E
  8
BGTBAS-2A
 10
909.792631169
 20
1029.9574982165
 30
0.0
 11
941.5426311645
 21
1024.8774982165
 31
0.0
 12
941.5426311645
 22
1035.0374982165
 32
0.0
 13
941.5426311645
 23
1035.0374982165
 33
0.0
  0
LINE
  5
27F
  8
BGTBAS-2A
  6
SLD-DURCHGEHEND
 10
968.3165086806
 20
701.5015934623
 30
0.0
 11
909.792631169
 21
701.5015934623
 31
0.0
  0
SOLID
  5
280
  8
BGTBAS-2A
 10
909.792631169
 20
701.5015934623
 30
0.0
 11
941.5426311647
 21
696.4215934623
 31
0.0
 12
941.5426311647
 22
706.5815934623
 32
0.0
 13
941.5426311647
 23
706.5815934623
 33
0.0
  0
TEXT
  5
281
  8
BGTBAS-2A
 10
965.8791679241
 20
1022.1315092397
 30
0.0009609002
 40
17.5
  1
A
 41
0.7
 11
965.8791679241
 21
1039.6315092397
 31
0.0009609002
 73
     3
  0
TEXT
  5
282
  8
BGTBAS-2A
 10
966.9982801835
 20
692.5402657281
 30
0.0009609002
 40
17.5
  1
A
 41
0.7
 11
966.9982801835
 21
710.0402657281
 31
0.0009609002
 73
     3
  0
LINE
  5
283
  8
0
  6
SLD-PUNKTSTRICH
 62
     7
 10
832.1232657719
 20
854.1321819881
 30
0.0
 11
1383.744662619
 21
854.1322470669
 31
0.0
  0
LINE
  5
284
  8
BGTBAS-8
 10
1712.7016042878
 20
906.7577024095
 30
0.0
 11
1742.1528351619
 21
936.2089332836
 31
0.0
  0
LINE
  5
285
  8
BGTBAS-8
 10
1701.0291406329
 20
872.6345984519
 30
0.0
 11
1778.6891442215
 21
950.2946020404
 31
0.0
  0
LINE
  5
286
  8
BGTBAS-8
 10
1701.0291406329
 20
850.1839581492
 30
0.0
 11
1802.1942054657
 21
951.3490229819
 31
0.0
  0
LINE
  5
287
  8
BGTBAS-8
 10
1701.0291406329
 20
827.7333178465
 30
0.0
 11
1821.2617596793
 21
947.9659368928
 31
0.0
  0
LINE
  5
288
  8
BGTBAS-8
 10
1707.143427269
 20
811.3969641799
 30
0.0
 11
1837.5135733915
 21
941.7671103024
 31
0.0
  0
LINE
  5
289
  8
BGTBAS-8
 10
1715.5309038468
 20
797.3338004551
 30
0.0
 11
1851.5767371163
 21
933.3796337246
 31
0.0
  0
LINE
  5
28A
  8
BGTBAS-8
 10
1725.8362294672
 20
785.1884857728
 30
0.0
 11
1863.8120259627
 21
923.1642822683
 31
0.0
  0
LINE
  5
28B
  8
BGTBAS-8
 10
1737.9815441495
 20
774.8831601524
 30
0.0
 11
1875.2022684481
 21
912.103884451
 31
0.0
  0
LINE
  5
28C
  8
BGTBAS-8
 10
1752.0447078743
 20
766.4956835746
 30
0.0
 11
1884.7876663361
 21
899.2386420363
 31
0.0
  0
LINE
  5
28D
  8
BGTBAS-8
 10
1768.2965215866
 20
760.2968569841
 30
0.0
 11
1888.5291406329
 21
880.5294760305
 31
0.0
  0
LINE
  5
28E
  8
BGTBAS-8
 10
1787.3640758001
 20
756.913770895
 30
0.0
 11
1888.5291406329
 21
858.0788357278
 31
0.0
  0
LINE
  5
28F
  8
BGTBAS-8
 10
1810.8691370443
 20
757.9681918365
 30
0.0
 11
1888.5291406329
 21
835.6281954251
 31
0.0
  0
LINE
  5
290
  8
BGTBAS-8
 10
1843.8362334829
 20
768.4846479725
 30
0.0
 11
1888.4226951912
 21
813.0711096807
 31
0.0
  0
ARC
  5
291
  8
BGTBAS-0
 10
1794.7791406329
 20
854.1313969385
 30
0.0
 40
102.2500000000001
 50
203.5272369505
 51
321.0097055256
  0
LINE
  5
292
  8
BGTBAS-0
 10
1701.0291406329
 20
813.3147336746
 30
0.0
 11
1701.0291406329
 21
827.3510403314
 31
0.0
  0
ARC
  5
293
  8
BGTBAS-0
 10
1803.4904985811
 20
858.2854719912
 30
0.0
 40
98.47869555624844
 50
286.8730841796
 51
315.9356053188
  0
LINE
  5
294
  8
BGTBAS-0
 10
1701.0291406329
 20
827.3510403314
 30
0.0
 11
1701.0291406329
 21
880.9117535455
 31
0.0
  0
LINE
  5
295
  8
BGTBAS-0
 10
1888.5291406329
 20
892.9473333726
 30
0.0
 11
1888.5291406329
 21
813.3147336746
 31
0.0
  0
ARC
  5
296
  8
BGTBAS-0
 10
1794.7791406329
 20
854.1313969385
 30
0.0
 40
102.25
 50
321.0097055256
 51
336.4727630495
  0
ARC
  5
297
  8
BGTBAS-0
 10
1794.7791406329
 20
854.1313969385
 30
0.0
 40
97.50000000000001
 50
195.9423686056
 51
292.4894598559
  0
ARC
  5
298
  8
BGTBAS-0
 10
1794.7791406329
 20
854.1313969385
 30
0.0
 40
97.50000000000004
 50
46.4000725095
 51
164.0576313944
  0
ARC
  5
299
  8
BGTBAS-0
 10
1801.569376933
 20
847.3770736333
 30
0.0
 40
98.17662183763717
 50
27.6562668618
 51
51.9967269098
  0
ARC
  5
29A
  8
BGTBAS-0
 10
1794.7791406329
 20
854.1313969385
 30
0.0
 40
102.2499999999997
 50
23.5272369505
 51
156.4727630495
  0
LINE
  5
29B
  8
BGTBAS-0
 10
1701.0291406329
 20
880.9117535455
 30
0.0
 11
1701.0291406329
 21
894.9480602024
 31
0.0
  0
LINE
  5
29C
  8
BGTBAS-0
 10
1888.5291406329
 20
894.9480602024
 30
0.0
 11
1888.5291406329
 21
893.0911877723
 31
0.0
  0
POINT
  5
29D
  8
0
  6
CONTINUOUS
 62
     7
 10
1794.7791406329
 20
751.8813969385
 30
0.0
  0
POINT
  5
29E
  8
0
  6
CONTINUOUS
 62
     7
 10
1794.7791406329
 20
956.3813969385
 30
0.0
  0
POINT
  5
29F
  8
0
  6
CONTINUOUS
 62
     7
 10
1888.5291406329
 20
853.1310335236
 30
0.0
  0
POINT
  5
2A0
  8
0
  6
CONTINUOUS
 62
     7
 10
1701.0291406329
 20
854.1313969385
 30
0.0
  0
POINT
  5
2A1
  8
0
  6
CONTINUOUS
 62
     7
 10
1794.7791406329
 20
956.3813969385
 30
0.0
  0
POINT
  5
2A2
  8
0
  6
CONTINUOUS
 62
     7
 10
1794.7791406329
 20
751.8813969385
 30
0.0
  0
ENDSEC
  0
EOF
