  0
SECTION
  2
HEADER
  9
$ACADVER
  1
AC1015
  9
$ACADMAINTVER
 70
    10
  9
$DWGCODEPAGE
  3
ANSI_1252
  9
$INSBASE
 10
0.0
 20
0.0
 30
0.0
  9
$EXTMIN
 10
666.3056834139254
 20
21.08590281848186
 30
0.0
  9
$EXTMAX
 10
702.4062543703275
 20
52.26281735472176
 30
0.0
  9
$LIMMIN
 10
0.0
 20
0.0
  9
$LIMMAX
 10
12.0
 20
9.0
  9
$ORTHOMODE
 70
     1
  9
$REGENMODE
 70
     1
  9
$FILLMODE
 70
     1
  9
$QTEXTMODE
 70
     0
  9
$MIRRTEXT
 70
     1
  9
$LTSCALE
 40
25.0
  9
$ATTMODE
 70
     1
  9
$TEXTSIZE
 40
5.0
  9
$TRACEWID
 40
0.05
  9
$TEXTSTYLE
  7
STANDARD
  9
$CLAYER
  8
03-KONTUR
  9
$CELTYPE
  6
BYLAYER
  9
$CECOLOR
 62
   256
  9
$CELTSCALE
 40
1.0
  9
$DISPSILH
 70
     0
  9
$DIMSCALE
 40
1.0
  9
$DIMASZ
 40
4.0
  9
$DIMEXO
 40
0.0625
  9
$DIMDLI
 40
0.0
  9
$DIMRND
 40
0.0
  9
$DIMDLE
 40
0.0
  9
$DIMEXE
 40
2.0
  9
$DIMTP
 40
2.0
  9
$DIMTM
 40
2.0
  9
$DIMTXT
 40
3.5
  9
$DIMCEN
 40
0.09
  9
$DIMTSZ
 40
0.0
  9
$DIMTOL
 70
     1
  9
$DIMLIM
 70
     0
  9
$DIMTIH
 70
     0
  9
$DIMTOH
 70
     0
  9
$DIMSE1
 70
     0
  9
$DIMSE2
 70
     0
  9
$DIMTAD
 70
     1
  9
$DIMZIN
 70
     0
  9
$DIMBLK
  1

  9
$DIMASO
 70
     1
  9
$DIMSHO
 70
     1
  9
$DIMPOST
  1

  9
$DIMAPOST
  1

  9
$DIMALT
 70
     0
  9
$DIMALTD
 70
     2
  9
$DIMALTF
 40
25.4
  9
$DIMLFAC
 40
1.0
  9
$DIMTOFL
 70
     1
  9
$DIMTVP
 40
0.0
  9
$DIMTIX
 70
     0
  9
$DIMSOXD
 70
     0
  9
$DIMSAH
 70
     0
  9
$DIMBLK1
  1

  9
$DIMBLK2
  1

  9
$DIMSTYLE
  2
STANDARD
  9
$DIMCLRD
 70
     6
  9
$DIMCLRE
 70
     6
  9
$DIMCLRT
 70
     1
  9
$DIMTFAC
 40
0.7
  9
$DIMGAP
 40
2.0
  9
$DIMJUST
 70
     0
  9
$DIMSD1
 70
     0
  9
$DIMSD2
 70
     0
  9
$DIMTOLJ
 70
     2
  9
$DIMTZIN
 70
     0
  9
$DIMALTZ
 70
     0
  9
$DIMALTTZ
 70
     0
  9
$DIMUPT
 70
     0
  9
$DIMDEC
 70
     3
  9
$DIMTDEC
 70
     0
  9
$DIMALTU
 70
     2
  9
$DIMALTTD
 70
     2
  9
$DIMTXSTY
  7
STANDARD
  9
$DIMAUNIT
 70
     0
  9
$DIMADEC
 70
     0
  9
$DIMALTRND
 40
0.0
  9
$DIMAZIN
 70
     0
  9
$DIMDSEP
 70
    46
  9
$DIMATFIT
 70
     3
  9
$DIMFRAC
 70
     0
  9
$DIMLDRBLK
  1

  9
$DIMLUNIT
 70
     2
  9
$DIMLWD
 70
    -2
  9
$DIMLWE
 70
    -2
  9
$DIMTMOVE
 70
     0
  9
$LUNITS
 70
     2
  9
$LUPREC
 70
     4
  9
$SKETCHINC
 40
0.1
  9
$FILLETRAD
 40
0.0
  9
$AUNITS
 70
     0
  9
$AUPREC
 70
     0
  9
$MENU
  1
.
  9
$ELEVATION
 40
0.0
  9
$PELEVATION
 40
0.0
  9
$THICKNESS
 40
0.0
  9
$LIMCHECK
 70
     0
  9
$CHAMFERA
 40
3.0
  9
$CHAMFERB
 40
3.0
  9
$CHAMFERC
 40
0.0
  9
$CHAMFERD
 40
0.0
  9
$SKPOLY
 70
     0
  9
$TDCREATE
 40
2450597.581444791
  9
$TDUCREATE
 40
2450597.539778125
  9
$TDUPDATE
 40
2453013.495549699
  9
$TDUUPDATE
 40
2453013.453883032
  9
$TDINDWG
 40
0.5785422685
  9
$TDUSRTIMER
 40
0.5785422685
  9
$USRTIMER
 70
     1
  9
$ANGBASE
 50
0.0
  9
$ANGDIR
 70
     0
  9
$PDMODE
 70
     0
  9
$PDSIZE
 40
0.0
  9
$PLINEWID
 40
0.0
  9
$SPLFRAME
 70
     0
  9
$SPLINETYPE
 70
     6
  9
$SPLINESEGS
 70
     8
  9
$HANDSEED
  5
304B
  9
$SURFTAB1
 70
     6
  9
$SURFTAB2
 70
     6
  9
$SURFTYPE
 70
     6
  9
$SURFU
 70
     6
  9
$SURFV
 70
     6
  9
$UCSBASE
  2

  9
$UCSNAME
  2

  9
$UCSORG
 10
0.0
 20
0.0
 30
0.0
  9
$UCSXDIR
 10
1.0
 20
0.0
 30
0.0
  9
$UCSYDIR
 10
0.0
 20
1.0
 30
0.0
  9
$UCSORTHOREF
  2

  9
$UCSORTHOVIEW
 70
     0
  9
$UCSORGTOP
 10
0.0
 20
0.0
 30
0.0
  9
$UCSORGBOTTOM
 10
0.0
 20
0.0
 30
0.0
  9
$UCSORGLEFT
 10
0.0
 20
0.0
 30
0.0
  9
$UCSORGRIGHT
 10
0.0
 20
0.0
 30
0.0
  9
$UCSORGFRONT
 10
0.0
 20
0.0
 30
0.0
  9
$UCSORGBACK
 10
0.0
 20
0.0
 30
0.0
  9
$PUCSBASE
  2

  9
$PUCSNAME
  2

  9
$PUCSORG
 10
0.0
 20
0.0
 30
0.0
  9
$PUCSXDIR
 10
1.0
 20
0.0
 30
0.0
  9
$PUCSYDIR
 10
0.0
 20
1.0
 30
0.0
  9
$PUCSORTHOREF
  2

  9
$PUCSORTHOVIEW
 70
     0
  9
$PUCSORGTOP
 10
0.0
 20
0.0
 30
0.0
  9
$PUCSORGBOTTOM
 10
0.0
 20
0.0
 30
0.0
  9
$PUCSORGLEFT
 10
0.0
 20
0.0
 30
0.0
  9
$PUCSORGRIGHT
 10
0.0
 20
0.0
 30
0.0
  9
$PUCSORGFRONT
 10
0.0
 20
0.0
 30
0.0
  9
$PUCSORGBACK
 10
0.0
 20
0.0
 30
0.0
  9
$USERI1
 70
     0
  9
$USERI2
 70
     0
  9
$USERI3
 70
     0
  9
$USERI4
 70
     0
  9
$USERI5
 70
     0
  9
$USERR1
 40
0.0
  9
$USERR2
 40
0.0
  9
$USERR3
 40
0.0
  9
$USERR4
 40
0.0
  9
$USERR5
 40
0.0
  9
$WORLDVIEW
 70
     1
  9
$SHADEDGE
 70
     3
  9
$SHADEDIF
 70
    70
  9
$TILEMODE
 70
     1
  9
$MAXACTVP
 70
    16
  9
$PINSBASE
 10
0.0
 20
0.0
 30
0.0
  9
$PLIMCHECK
 70
     0
  9
$PEXTMIN
 10
1.000000000000000E+20
 20
1.000000000000000E+20
 30
1.000000000000000E+20
  9
$PEXTMAX
 10
-1.000000000000000E+20
 20
-1.000000000000000E+20
 30
-1.000000000000000E+20
  9
$PLIMMIN
 10
0.0
 20
0.0
  9
$PLIMMAX
 10
12.0
 20
9.0
  9
$UNITMODE
 70
     0
  9
$VISRETAIN
 70
     0
  9
$PLINEGEN
 70
     0
  9
$PSLTSCALE
 70
     1
  9
$TREEDEPTH
 70
  3020
  9
$CMLSTYLE
  2
STANDARD
  9
$CMLJUST
 70
     0
  9
$CMLSCALE
 40
1.0
  9
$PROXYGRAPHICS
 70
     1
  9
$MEASUREMENT
 70
     0
  9
$CELWEIGHT
370
    -1
  9
$ENDCAPS
280
     0
  9
$JOINSTYLE
280
     0
  9
$LWDISPLAY
290
     0
  9
$INSUNITS
 70
     0
  9
$HYPERLINKBASE
  1

  9
$STYLESHEET
  1

  9
$XEDIT
290
     1
  9
$CEPSNTYPE
380
     0
  9
$PSTYLEMODE
290
     1
  9
$FINGERPRINTGUID
  2
{82C633E8-2C67-11D7-B421-0050BA12178D}
  9
$VERSIONGUID
  2
{91CED44D-F552-4DCE-B735-94833D79FE58}
  9
$EXTNAMES
290
     1
  9
$PSVPSCALE
 40
0.0
  9
$OLESTARTUP
290
     0
  0
ENDSEC
  0
SECTION
  2
CLASSES
  0
CLASS
  1
OLE2FRAME
  2
AcDbOle2Frame
  3
AutoCAD 2000
 90
    32768
280
     0
281
     1
  0
CLASS
  1
ACDBDICTIONARYWDFLT
  2
AcDbDictionaryWithDefault
  3
AutoCAD 2000
 90
        0
280
     0
281
     0
  0
CLASS
  1
ACDBPLACEHOLDER
  2
AcDbPlaceHolder
  3
AutoCAD 2000
 90
        0
280
     0
281
     0
  0
CLASS
  1
LAYOUT
  2
AcDbLayout
  3
AutoCAD 2000
 90
        0
280
     0
281
     0
  0
ENDSEC
  0
SECTION
  2
TABLES
  0
TABLE
  2
VPORT
  5
14F3
330
0
100
AcDbSymbolTable
 70
     3
  0
VPORT
  5
304A
330
14F3
100
AcDbSymbolTableRecord
100
AcDbViewportTableRecord
  2
*Active
 70
     0
 10
0.0
 20
0.0
 11
1.0
 21
1.0
 12
686.2841447063669
 22
36.67430551444278
 13
0.0
 23
0.0
 14
1.0
 24
1.0
 15
0.0
 25
0.0
 16
0.0
 26
0.0
 36
1.0
 17
0.0
 27
0.0
 37
0.0
 40
31.53893899612885
 41
1.887814313346228
 42
50.0
 43
0.0
 44
0.0
 50
0.0
 51
0.0
 71
     0
 72
   100
 73
     1
 74
     0
 75
     0
 76
     0
 77
     0
 78
     0
281
     0
 65
     1
110
0.0
120
0.0
130
0.0
111
1.0
121
0.0
131
0.0
112
0.0
122
1.0
132
0.0
 79
     0
146
0.0
  0
ENDTAB
  0
TABLE
  2
LTYPE
  5
14F0
330
0
100
AcDbSymbolTable
 70
     3
  0
LTYPE
  5
14FD
330
14F0
100
AcDbSymbolTableRecord
100
AcDbLinetypeTableRecord
  2
BYBLOCK
 70
     0
  3

 72
    65
 73
     0
 40
0.0
  0
LTYPE
  5
14FE
330
14F0
100
AcDbSymbolTableRecord
100
AcDbLinetypeTableRecord
  2
BYLAYER
 70
     0
  3

 72
    65
 73
     0
 40
0.0
  0
LTYPE
  5
14FF
330
14F0
100
AcDbSymbolTableRecord
100
AcDbLinetypeTableRecord
  2
CONTINUOUS
 70
     0
  3
Solid line
 72
    65
 73
     0
 40
0.0
  0
LTYPE
  5
1512
330
14F0
100
AcDbSymbolTableRecord
100
AcDbLinetypeTableRecord
  2
AUSGEZOGEN
 70
     0
  3
_______________________________
 72
    65
 73
     0
 40
0.0
  0
LTYPE
  5
2181
330
14F0
100
AcDbSymbolTableRecord
100
AcDbLinetypeTableRecord
  2
MITTE
 70
     0
  3
____ _ ____ _ ____ _ ____ _ ____ _ ____ _ ____ 
 72
    65
 73
     4
 40
2.0
 49
1.25
 74
     0
 49
-0.25
 74
     0
 49
0.25
 74
     0
 49
-0.25
 74
     0
  0
ENDTAB
  0
TABLE
  2
LAYER
  5
14ED
330
0
100
AcDbSymbolTable
 70
     4
  0
LAYER
  5
14FA
330
14ED
100
AcDbSymbolTableRecord
100
AcDbLayerTableRecord
  2
0
 70
     0
 62
     7
  6
CONTINUOUS
370
    -3
390
3029
  0
LAYER
  5
1D3B
330
14ED
100
AcDbSymbolTableRecord
100
AcDbLayerTableRecord
  2
03-KONTUR
 70
     0
 62
     7
  6
AUSGEZOGEN
370
    -3
390
3029
  0
LAYER
  5
20D0
330
14ED
100
AcDbSymbolTableRecord
100
AcDbLayerTableRecord
  2
10-TEXT25
 70
     0
 62
     1
  6
CONTINUOUS
370
    -3
390
3029
  0
LAYER
  5
2296
330
14ED
100
AcDbSymbolTableRecord
100
AcDbLayerTableRecord
  2
DEFPOINTS
 70
     0
 62
     1
  6
AUSGEZOGEN
290
     0
370
    -3
390
3029
  0
ENDTAB
  0
TABLE
  2
STYLE
  5
14EE
330
0
100
AcDbSymbolTable
 70
     1
  0
STYLE
  5
14FB
330
14EE
100
AcDbSymbolTableRecord
100
AcDbTextStyleTableRecord
  2
STANDARD
 70
     0
 40
0.0
 41
0.8
 50
0.0
 71
     0
 42
5.0
  3
C:\Programme\AutoCAD LT 2000i Deu\romans.shx
  4

  0
ENDTAB
  0
TABLE
  2
VIEW
  5
14F1
330
0
100
AcDbSymbolTable
 70
     0
  0
ENDTAB
  0
TABLE
  2
UCS
  5
14F2
330
0
100
AcDbSymbolTable
 70
     0
  0
ENDTAB
  0
TABLE
  2
APPID
  5
14F4
330
0
100
AcDbSymbolTable
 70
     1
  0
APPID
  5
14FC
330
14F4
100
AcDbSymbolTableRecord
100
AcDbRegAppTableRecord
  2
ACAD
 70
     0
  0
ENDTAB
  0
TABLE
  2
DIMSTYLE
  5
14F5
330
0
100
AcDbSymbolTable
 70
     1
100
AcDbDimStyleTable
 71
     0
  0
DIMSTYLE
105
1516
330
14F5
100
AcDbSymbolTableRecord
100
AcDbDimStyleTableRecord
  2
STANDARD
 70
     0
279
     2
340
14FB
  0
ENDTAB
  0
TABLE
  2
BLOCK_RECORD
  5
14EC
330
0
100
AcDbSymbolTable
 70
     5
  0
BLOCK_RECORD
  5
1503
330
14EC
100
AcDbSymbolTableRecord
100
AcDbBlockTableRecord
  2
*MODEL_SPACE
340
302C
  0
BLOCK_RECORD
  5
1500
330
14EC
100
AcDbSymbolTableRecord
100
AcDbBlockTableRecord
  2
*PAPER_SPACE
340
302D
  0
BLOCK_RECORD
  5
300B
330
14EC
100
AcDbSymbolTableRecord
100
AcDbBlockTableRecord
  2
A$C2022
340
0
  0
ENDTAB
  0
ENDSEC
  0
SECTION
  2
BLOCKS
  0
BLOCK
  5
1521
330
1503
100
AcDbEntity
  8
0
 62
     6
100
AcDbBlockBegin
  2
*MODEL_SPACE
 70
     0
 10
0.0
 20
0.0
 30
0.0
  3
*MODEL_SPACE
  1

  0
ENDBLK
  5
1522
330
1503
100
AcDbEntity
  8
0
 62
     6
100
AcDbBlockEnd
  0
BLOCK
  5
151F
330
1500
100
AcDbEntity
 67
     1
  8
0
 62
     6
100
AcDbBlockBegin
  2
*PAPER_SPACE
 70
     0
 10
0.0
 20
0.0
 30
0.0
  3
*PAPER_SPACE
  1

  0
ENDBLK
  5
1520
330
1500
100
AcDbEntity
 67
     1
  8
0
 62
     6
100
AcDbBlockEnd
  0
BLOCK
  5
3023
330
300B
100
AcDbEntity
  8
0
100
AcDbBlockBegin
  2
A$C2022
 70
     0
 10
0.0
 20
0.0
 30
0.0
  3
A$C2022
  1

  0
TEXT
  5
300C
330
300B
100
AcDbEntity
  8
10-TEXT25
 48
10.0
100
AcDbText
 10
0.4205597599894873
 20
43.25385030125441
 30
0.0
 40
2.5
  1
nicht vermaßte Radien:
 41
0.8
 11
0.4205597599894873
 21
42.42051696792109
 31
0.0
100
AcDbText
 73
     1
  0
TEXT
  5
300D
330
300B
100
AcDbEntity
  8
10-TEXT25
 48
10.0
100
AcDbText
 10
44.02948796537941
 20
43.45880179174405
 30
0.0
 40
2.5
  1
R 2,0
 41
0.8
 11
44.02948796537941
 21
42.62546845841072
 31
0.0
100
AcDbText
 73
     1
  0
TEXT
  5
300E
330
300B
100
AcDbEntity
  8
10-TEXT25
 48
10.0
100
AcDbText
 10
43.67971788434874
 20
17.03718435541416
 30
0.0
 40
2.5
  1
and/or acc. to drawing data
 41
0.8
 11
43.67971788434874
 21
16.20385102208084
 31
0.0
100
AcDbText
 73
     1
  0
TEXT
  5
300F
330
300B
100
AcDbEntity
  8
10-TEXT25
 48
10.0
100
AcDbText
 10
44.00480466728959
 20
24.12991187786632
 30
0.0
 40
2.5
  1
acc. to DIN ISO 2768-1 class c
 41
0.8
 11
44.00480466728959
 21
23.29657854453299
 31
0.0
100
AcDbText
 73
     1
  0
TEXT
  5
3010
330
300B
100
AcDbEntity
  8
10-TEXT25
 48
10.0
100
AcDbText
 10
44.02948796537941
 20
35.09565107652262
 30
0.0
 40
2.5
  1
entgratet
 41
0.8
 11
44.02948796537941
 21
34.2623177431893
 31
0.0
100
AcDbText
 73
     1
  0
TEXT
  5
3011
330
300B
100
AcDbEntity
  8
10-TEXT25
 48
10.0
100
AcDbText
 10
44.02948796537941
 20
39.27278420239296
 30
0.0
 40
2.5
  1
entgratet
 41
0.8
 11
44.02948796537941
 21
38.43945086905964
 31
0.0
100
AcDbText
 73
     1
  0
TEXT
  5
3012
330
300B
100
AcDbEntity
  8
10-TEXT25
 48
10.0
100
AcDbText
 10
44.23105830692998
 20
1.041995492536443
 30
0.0
 40
2.5
  1
rough
 41
0.8
 11
44.23105830692998
 21
0.2086621592031008
 31
0.0
100
AcDbText
 73
     1
  0
TEXT
  5
3013
330
300B
100
AcDbEntity
  8
10-TEXT25
 48
10.0
100
AcDbText
 10
0.3325034530134872
 20
12.90559205673331
 30
0.0
 40
2.5
  1
not dimensioned radii:
 41
0.8
 11
0.3325034530134872
 21
12.07225872339998
 31
0.0
100
AcDbText
 73
     1
  0
TEXT
  5
3014
330
300B
100
AcDbEntity
  8
10-TEXT25
 48
10.0
100
AcDbText
 10
0.2683153638427029
 20
5.099098198635601
 30
0.0
 40
2.5
  1
thread:
 41
0.8
 11
0.2683153638427029
 21
4.265764865302259
 31
0.0
100
AcDbText
 73
     1
  0
TEXT
  5
3015
330
300B
100
AcDbEntity
  8
10-TEXT25
 48
10.0
100
AcDbText
 10
0.2683153638427029
 20
1.041995492536443
 30
0.0
 40
2.5
  1
surface:
 41
0.8
 11
0.2683153638427029
 21
0.2086621592031008
 31
0.0
100
AcDbText
 73
     1
  0
TEXT
  5
3016
330
300B
100
AcDbEntity
  8
10-TEXT25
 48
10.0
100
AcDbText
 10
0.3325034530134872
 20
9.183469966356241
 30
0.0
 40
2.5
  1
outer edges:
 41
0.8
 11
0.3325034530134872
 21
8.350136633022913
 31
0.0
100
AcDbText
 73
     1
  0
TEXT
  5
3017
330
300B
100
AcDbEntity
  8
10-TEXT25
 48
10.0
100
AcDbText
 10
44.23105830692998
 20
5.099098198635601
 30
0.0
 40
2.5
  1
deburred
 41
0.8
 11
44.23105830692998
 21
4.265764865302259
 31
0.0
100
AcDbText
 73
     1
  0
TEXT
  5
3018
330
300B
100
AcDbEntity
  8
10-TEXT25
 48
10.0
100
AcDbText
 10
44.23105830692998
 20
9.388421456845875
 30
0.0
 40
2.5
  1
deburred
 41
0.8
 11
44.23105830692998
 21
8.555088123512547
 31
0.0
100
AcDbText
 73
     1
  0
TEXT
  5
3019
330
300B
100
AcDbEntity
  8
10-TEXT25
 48
10.0
100
AcDbText
 10
44.23105830692998
 20
13.11054354722294
 30
0.0
 40
2.5
  1
R 2,0
 41
0.8
 11
44.23105830692998
 21
12.27721021388961
 31
0.0
100
AcDbText
 73
     1
  0
TEXT
  5
301A
330
300B
100
AcDbEntity
  8
10-TEXT25
 48
10.0
100
AcDbText
 10
0.5313909676895037
 20
24.12991187786632
 30
0.0
 40
2.5
  1
manufacturing tolerances:
 41
0.8
 11
0.5313909676895037
 21
23.29657854453299
 31
0.0
100
AcDbText
 73
     1
  0
TEXT
  5
301B
330
300B
100
AcDbEntity
  8
10-TEXT25
 48
10.0
100
AcDbText
 10
0.356371670818703
 20
35.09565107652262
 30
0.0
 40
2.5
  1
Gewindeanfang/-ende:
 41
0.8
 11
0.356371670818703
 21
34.2623177431893
 31
0.0
100
AcDbText
 73
     1
  0
TEXT
  5
301C
330
300B
100
AcDbEntity
  8
10-TEXT25
 48
10.0
100
AcDbText
 10
0.356371670818703
 20
31.25461712842711
 30
0.0
 40
2.5
  1
Oberfläche:
 41
0.8
 11
0.356371670818703
 21
30.42128379509378
 31
0.0
100
AcDbText
 73
     1
  0
TEXT
  5
301D
330
300B
100
AcDbEntity
  8
10-TEXT25
 48
10.0
100
AcDbText
 10
0.4205597599894873
 20
39.06783271190333
 30
0.0
 40
2.5
  1
Außenkanten:
 41
0.8
 11
0.4205597599894873
 21
38.23449937857001
 31
0.0
100
AcDbText
 73
     1
  0
TEXT
  5
301E
330
300B
100
AcDbEntity
  8
10-TEXT25
 48
10.0
100
AcDbText
 10
44.02948796537941
 20
31.25461712842711
 30
0.0
 40
2.5
  1
roh
 41
0.8
 11
44.02948796537941
 21
30.42128379509378
 31
0.0
100
AcDbText
 73
     1
  0
TEXT
  5
301F
330
300B
100
AcDbEntity
  8
10-TEXT25
 48
10.0
100
AcDbText
 10
43.76120377801237
 20
48.6970808247094
 30
0.0
 40
2.5
  1
bzw. nach Zeichnungsangabe
 41
0.8
 11
43.76120377801237
 21
47.86374749137607
 31
0.0
100
AcDbText
 73
     1
  0
TEXT
  5
3020
330
300B
100
AcDbEntity
  8
10-TEXT25
 48
10.0
100
AcDbText
 10
53.03780424763556
 20
52.402509513222
 30
0.0
 40
2.5
  1
DIN ISO 2768-2 Klasse L
 41
0.8
 11
53.03780424763556
 21
51.56917617988867
 31
0.0
100
AcDbText
 73
     1
  0
TEXT
  5
3021
330
300B
100
AcDbEntity
  8
10-TEXT25
 48
10.0
100
AcDbText
 10
43.80323432573902
 20
56.35435748808667
 30
0.0
 40
2.5
  1
nach DIN ISO 2768-1 Klasse c
 41
0.8
 11
43.80323432573902
 21
55.52102415475335
 31
0.0
100
AcDbText
 73
     1
  0
TEXT
  5
3022
330
300B
100
AcDbEntity
  8
10-TEXT25
 48
10.0
100
AcDbText
 10
0.6194472746655038
 20
56.35435748808667
 30
0.0
 40
2.5
  1
Fertigungstoleranzen:
 41
0.8
 11
0.6194472746655038
 21
55.52102415475335
 31
0.0
100
AcDbText
 73
     1
  0
ENDBLK
  5
3024
330
300B
100
AcDbEntity
  8
0
100
AcDbBlockEnd
  0
ENDSEC
  0
SECTION
  2
ENTITIES
  0
LINE
  5
2CFE
330
1503
100
AcDbEntity
  8
0
100
AcDbLine
 10
701.8559688921266
 20
43.40100349067384
 30
0.0
 11
701.8559688921266
 21
24.08590281848187
 31
0.0
  0
LINE
  5
2D1D
330
1503
100
AcDbEntity
  8
0
100
AcDbLine
 10
701.8559688921264
 20
50.22965800394679
 30
0.0
 11
701.8559688921268
 21
43.40100349067403
 31
0.0
1001
ACAD
1000
ASC_BOUNDS
1002
{
1070
    19
1005
2FF9
1002
}
  0
LINE
  5
2E98
330
1503
100
AcDbEntity
  8
0
100
AcDbLine
 10
699.8228095413518
 20
21.08590281848186
 30
0.0
 11
668.8891282429011
 21
21.08590281848186
 31
0.0
  0
LINE
  5
2E99
330
1503
100
AcDbEntity
  8
0
100
AcDbLine
 10
699.6100469397102
 20
28.88013145254195
 30
0.0
 11
669.1018908445426
 21
28.88013145254208
 31
0.0
  0
LINE
  5
2E9A
330
1503
100
AcDbEntity
  8
0
100
AcDbLine
 10
666.8559688921273
 20
23.11906216925612
 30
0.0
 11
666.855968892127
 21
28.88013145254209
 31
0.0
1001
ACAD
1000
ASC_BOUNDS
1002
{
1070
    19
1002
}
  0
LINE
  5
2E9B
330
1503
100
AcDbEntity
  8
0
100
AcDbLine
 10
666.8559688921265
 20
43.2577675345618
 30
0.0
 11
666.8559688921268
 21
28.88013145254209
 31
0.0
1001
ACAD
1000
ASC_BOUNDS
1002
{
1070
    19
1002
}
  0
LINE
  5
2E9E
330
1503
100
AcDbEntity
  8
0
100
AcDbLine
 10
666.8559688921273
 20
23.11906216925612
 30
0.0
 11
668.8891282429011
 21
21.08590281848186
 31
0.0
  0
ARC
  5
2EB3
330
1503
100
AcDbEntity
  8
0
100
AcDbCircle
 10
681.5034425822936
 20
36.67436008660181
 30
0.0
 40
14.64747369016707
100
AcDbArc
 50
180.0
 51
212.1488759026289
  0
ARC
  5
2EB4
330
1503
100
AcDbEntity
  8
0
100
AcDbCircle
 10
671.360058046827
 20
24.98301713551195
 30
0.0
 40
4.504089154699841
100
AcDbArc
 50
120.0899745693366
 51
239.9100254306631
  0
ARC
  5
2EB5
330
1503
100
AcDbEntity
  8
0
100
AcDbCircle
 10
697.351879737426
 20
24.98301713551195
 30
0.0
 40
4.504089154699841
100
AcDbArc
 50
300.0899745693369
 51
59.91002543066333
  0
LINE
  5
2EB6
330
1503
100
AcDbEntity
  8
0
100
AcDbLine
 10
701.8559688921255
 20
23.11906216925612
 30
0.0
 11
699.8228095413518
 21
21.08590281848186
 31
0.0
  0
ARC
  5
2EB7
330
1503
100
AcDbEntity
  8
0
100
AcDbCircle
 10
687.2084952019593
 20
36.67436008660181
 30
0.0
 40
14.64747369016707
100
AcDbArc
 50
327.851124097371
 51
0.0
  0
LINE
  5
2EB8
330
1503
100
AcDbEntity
  8
0
100
AcDbLine
 10
701.8559688921255
 20
23.11906216925612
 30
0.0
 11
701.8559688921259
 21
28.88013145254209
 31
0.0
1001
ACAD
1000
ASC_BOUNDS
1002
{
1070
    19
1002
}
  0
LINE
  5
2EB9
330
1503
100
AcDbEntity
  8
0
100
AcDbLine
 10
699.8228095413518
 20
52.26281735472174
 30
0.0
 11
668.8891282429011
 21
52.26281735472174
 31
0.0
1001
ACAD
1000
ASC_BOUNDS
1002
{
1070
    19
1005
2FF9
1002
}
  0
LINE
  5
2EBA
330
1503
100
AcDbEntity
  8
0
100
AcDbLine
 10
666.8559688921265
 20
50.22965800394665
 30
0.0
 11
668.8891282429011
 21
52.26281735472174
 31
0.0
1001
ACAD
1000
ASC_BOUNDS
1002
{
1070
    19
1005
2FF9
1002
}
  0
LINE
  5
2EBB
330
1503
100
AcDbEntity
  8
0
100
AcDbLine
 10
701.8559688921264
 20
50.22965800394679
 30
0.0
 11
699.8228095413518
 21
52.26281735472174
 31
0.0
1001
ACAD
1000
ASC_BOUNDS
1002
{
1070
    19
1005
2FF9
1002
}
  0
LINE
  5
2FF6
330
1503
100
AcDbEntity
  8
0
100
AcDbLine
 10
666.8559688921265
 20
50.22965800394665
 30
0.0
 11
666.8559688921265
 21
43.2577675345618
 31
0.0
1001
ACAD
1000
ASC_BOUNDS
1002
{
1070
    19
1005
2FF9
1002
}
  0
LINE
  5
303E
330
1503
100
AcDbEntity
  8
0
100
AcDbLine
 10
699.6100469397101
 20
44.46858872066164
 30
0.0
 11
669.1018908445425
 21
44.46858872066111
 31
0.0
  0
ARC
  5
303F
330
1503
100
AcDbEntity
  8
0
100
AcDbCircle
 10
671.3600580468269
 20
48.36570303769126
 30
0.0
 40
4.504089154699841
100
AcDbArc
 50
120.0899745693376
 51
239.910025430664
  0
ARC
  5
3040
330
1503
100
AcDbEntity
  8
0
100
AcDbCircle
 10
681.5034425822936
 20
36.67436008660153
 30
0.0
 40
14.64747369016707
100
AcDbArc
 50
147.8511240973718
 51
180.0000000000007
  0
ARC
  5
3041
330
1503
100
AcDbEntity
  8
0
100
AcDbCircle
 10
697.3518797374258
 20
48.36570303769161
 30
0.0
 40
4.504089154699841
100
AcDbArc
 50
300.0899745693374
 51
59.91002543066389
  0
ARC
  5
3042
330
1503
100
AcDbEntity
  8
0
100
AcDbCircle
 10
687.2084952019593
 20
36.67436008660161
 30
0.0
 40
14.64747369016707
100
AcDbArc
 50
0.0000000000007677
 51
32.14887590262972
  0
ENDSEC
  0
SECTION
  2
OBJECTS
  0
DICTIONARY
  5
14F7
330
0
100
AcDbDictionary
281
     1
  3
ACAD_GROUP
350
14F8
  3
ACAD_LAYOUT
350
302A
  3
ACAD_MLINESTYLE
350
14F9
  3
ACAD_PLOTSETTINGS
350
302B
  3
ACAD_PLOTSTYLENAME
350
3028
  0
DICTIONARY
  5
14F8
102
{ACAD_REACTORS
330
14F7
102
}
330
14F7
100
AcDbDictionary
281
     1
  0
DICTIONARY
  5
302A
102
{ACAD_REACTORS
330
14F7
102
}
330
14F7
100
AcDbDictionary
281
     1
  3
Layout1
350
302D
  3
Model
350
302C
  0
DICTIONARY
  5
14F9
102
{ACAD_REACTORS
330
14F7
102
}
330
14F7
100
AcDbDictionary
281
     1
  3
STANDARD
350
1506
  0
DICTIONARY
  5
302B
102
{ACAD_REACTORS
330
14F7
102
}
330
14F7
100
AcDbDictionary
281
     1
  0
ACDBDICTIONARYWDFLT
  5
3028
102
{ACAD_REACTORS
330
14F7
102
}
330
14F7
100
AcDbDictionary
281
     1
  3
Normal
350
3029
100
AcDbDictionaryWithDefault
340
3029
  0
LAYOUT
  5
302D
102
{ACAD_REACTORS
330
302A
102
}
330
302A
100
AcDbPlotSettings
  1

  2
Kyocera Mita FS-1000+
  4

  6

 40
0.0
 41
0.0
 42
0.0
 43
0.0
 44
0.0
 45
0.0
 46
0.0
 47
0.0
 48
0.0
 49
0.0
140
0.0
141
0.0
142
1.0
143
1.0
 70
   688
 72
     0
 73
     0
 74
     5
  7

 75
    16
147
1.0
148
0.0
149
0.0
100
AcDbLayout
  1
Layout1
 70
     1
 71
     1
 10
0.0
 20
0.0
 11
12.0
 21
9.0
 12
0.0
 22
0.0
 32
0.0
 14
1.000000000000000E+20
 24
1.000000000000000E+20
 34
1.000000000000000E+20
 15
-1.000000000000000E+20
 25
-1.000000000000000E+20
 35
-1.000000000000000E+20
146
0.0
 13
0.0
 23
0.0
 33
0.0
 16
1.0
 26
0.0
 36
0.0
 17
0.0
 27
1.0
 37
0.0
 76
     0
330
1500
  0
LAYOUT
  5
302C
102
{ACAD_REACTORS
330
302A
102
}
330
302A
100
AcDbPlotSettings
  1

  2
Kyocera Mita FS-1800
  4
A4
  6

 40
6.805083274841308
 41
5.027085304260253
 42
6.805084228515625
 43
5.027069091796875
 44
209.9733276367187
 45
296.9259948730469
 46
0.0
 47
8.96
 48
543.2162585118873
 49
-136.9929676107041
140
920.5562585118872
141
138.507032389296
142
1.0
143
1.403012661911184
 70
 11956
 72
     1
 73
     1
 74
     4
  7

 75
     0
147
0.7127519424078466
148
-543.2162585118873
149
136.9929676107041
100
AcDbLayout
  1
Model
 70
     1
 71
     0
 10
0.0
 20
0.0
 11
12.0
 21
9.0
 12
0.0
 22
0.0
 32
0.0
 14
0.0
 24
0.0
 34
0.0
 15
0.0
 25
0.0
 35
0.0
146
0.0
 13
0.0
 23
0.0
 33
0.0
 16
1.0
 26
0.0
 36
0.0
 17
0.0
 27
1.0
 37
0.0
 76
     0
330
1503
  0
MLINESTYLE
  5
1506
102
{ACAD_REACTORS
330
14F9
102
}
330
14F9
100
AcDbMlineStyle
  2
STANDARD
 70
     0
  3

 62
     0
 51
90.0
 52
90.0
 71
     2
 49
0.5
 62
   256
  6
BYLAYER
 49
-0.5
 62
   256
  6
BYLAYER
  0
ACDBPLACEHOLDER
  5
3029
102
{ACAD_REACTORS
330
3028
102
}
330
3028
  0
ENDSEC
  0
EOF
