  0
SECTION
  2
HEADER
  9
$ACADVER
  1
AC1015
  9
$ACADMAINTVER
 70
    10
  9
$DWGCODEPAGE
  3
ANSI_1252
  9
$INSBASE
 10
0.0
 20
0.0
 30
0.0
  9
$EXTMIN
 10
579.3751044029935
 20
10.65892972983566
 30
0.0
  9
$EXTMAX
 10
699.3751044029939
 20
62.65892972983569
 30
0.0
  9
$LIMMIN
 10
0.0
 20
0.0
  9
$LIMMAX
 10
12.0
 20
9.0
  9
$ORTHOMODE
 70
     0
  9
$REGENMODE
 70
     1
  9
$FILLMODE
 70
     1
  9
$QTEXTMODE
 70
     0
  9
$MIRRTEXT
 70
     1
  9
$LTSCALE
 40
25.0
  9
$ATTMODE
 70
     1
  9
$TEXTSIZE
 40
5.0
  9
$TRACEWID
 40
0.05
  9
$TEXTSTYLE
  7
STANDARD
  9
$CLAYER
  8
03-KONTUR
  9
$CELTYPE
  6
BYLAYER
  9
$CECOLOR
 62
   256
  9
$CELTSCALE
 40
1.0
  9
$DISPSILH
 70
     0
  9
$DIMSCALE
 40
1.0
  9
$DIMASZ
 40
4.0
  9
$DIMEXO
 40
0.0625
  9
$DIMDLI
 40
0.0
  9
$DIMRND
 40
0.0
  9
$DIMDLE
 40
0.0
  9
$DIMEXE
 40
2.0
  9
$DIMTP
 40
1.0
  9
$DIMTM
 40
1.0
  9
$DIMTXT
 40
3.5
  9
$DIMCEN
 40
0.09
  9
$DIMTSZ
 40
0.0
  9
$DIMTOL
 70
     1
  9
$DIMLIM
 70
     0
  9
$DIMTIH
 70
     0
  9
$DIMTOH
 70
     0
  9
$DIMSE1
 70
     0
  9
$DIMSE2
 70
     0
  9
$DIMTAD
 70
     1
  9
$DIMZIN
 70
     0
  9
$DIMBLK
  1

  9
$DIMASO
 70
     1
  9
$DIMSHO
 70
     1
  9
$DIMPOST
  1

  9
$DIMAPOST
  1

  9
$DIMALT
 70
     0
  9
$DIMALTD
 70
     2
  9
$DIMALTF
 40
25.4
  9
$DIMLFAC
 40
1.0
  9
$DIMTOFL
 70
     1
  9
$DIMTVP
 40
0.0
  9
$DIMTIX
 70
     0
  9
$DIMSOXD
 70
     0
  9
$DIMSAH
 70
     0
  9
$DIMBLK1
  1

  9
$DIMBLK2
  1

  9
$DIMSTYLE
  2
STANDARD
  9
$DIMCLRD
 70
     6
  9
$DIMCLRE
 70
     6
  9
$DIMCLRT
 70
     1
  9
$DIMTFAC
 40
0.7
  9
$DIMGAP
 40
2.0
  9
$DIMJUST
 70
     0
  9
$DIMSD1
 70
     0
  9
$DIMSD2
 70
     0
  9
$DIMTOLJ
 70
     2
  9
$DIMTZIN
 70
     0
  9
$DIMALTZ
 70
     0
  9
$DIMALTTZ
 70
     0
  9
$DIMUPT
 70
     0
  9
$DIMDEC
 70
     0
  9
$DIMTDEC
 70
     0
  9
$DIMALTU
 70
     2
  9
$DIMALTTD
 70
     2
  9
$DIMTXSTY
  7
STANDARD
  9
$DIMAUNIT
 70
     0
  9
$DIMADEC
 70
     0
  9
$DIMALTRND
 40
0.0
  9
$DIMAZIN
 70
     0
  9
$DIMDSEP
 70
    46
  9
$DIMATFIT
 70
     3
  9
$DIMFRAC
 70
     0
  9
$DIMLDRBLK
  1

  9
$DIMLUNIT
 70
     2
  9
$DIMLWD
 70
    -2
  9
$DIMLWE
 70
    -2
  9
$DIMTMOVE
 70
     0
  9
$LUNITS
 70
     2
  9
$LUPREC
 70
     4
  9
$SKETCHINC
 40
0.1
  9
$FILLETRAD
 40
0.0
  9
$AUNITS
 70
     0
  9
$AUPREC
 70
     0
  9
$MENU
  1
.
  9
$ELEVATION
 40
0.0
  9
$PELEVATION
 40
0.0
  9
$THICKNESS
 40
0.0
  9
$LIMCHECK
 70
     0
  9
$CHAMFERA
 40
3.0
  9
$CHAMFERB
 40
3.0
  9
$CHAMFERC
 40
0.0
  9
$CHAMFERD
 40
0.0
  9
$SKPOLY
 70
     0
  9
$TDCREATE
 40
2450597.539778125
  9
$TDUCREATE
 40
2450597.498111458
  9
$TDUPDATE
 40
2453013.627817905
  9
$TDUUPDATE
 40
2453013.586151238
  9
$TDINDWG
 40
0.5666417477
  9
$TDUSRTIMER
 40
0.5666417477
  9
$USRTIMER
 70
     1
  9
$ANGBASE
 50
0.0
  9
$ANGDIR
 70
     0
  9
$PDMODE
 70
     0
  9
$PDSIZE
 40
0.0
  9
$PLINEWID
 40
0.0
  9
$SPLFRAME
 70
     0
  9
$SPLINETYPE
 70
     6
  9
$SPLINESEGS
 70
     8
  9
$HANDSEED
  5
3119
  9
$SURFTAB1
 70
     6
  9
$SURFTAB2
 70
     6
  9
$SURFTYPE
 70
     6
  9
$SURFU
 70
     6
  9
$SURFV
 70
     6
  9
$UCSBASE
  2

  9
$UCSNAME
  2

  9
$UCSORG
 10
0.0
 20
0.0
 30
0.0
  9
$UCSXDIR
 10
1.0
 20
0.0
 30
0.0
  9
$UCSYDIR
 10
0.0
 20
1.0
 30
0.0
  9
$UCSORTHOREF
  2

  9
$UCSORTHOVIEW
 70
     0
  9
$UCSORGTOP
 10
0.0
 20
0.0
 30
0.0
  9
$UCSORGBOTTOM
 10
0.0
 20
0.0
 30
0.0
  9
$UCSORGLEFT
 10
0.0
 20
0.0
 30
0.0
  9
$UCSORGRIGHT
 10
0.0
 20
0.0
 30
0.0
  9
$UCSORGFRONT
 10
0.0
 20
0.0
 30
0.0
  9
$UCSORGBACK
 10
0.0
 20
0.0
 30
0.0
  9
$PUCSBASE
  2

  9
$PUCSNAME
  2

  9
$PUCSORG
 10
0.0
 20
0.0
 30
0.0
  9
$PUCSXDIR
 10
1.0
 20
0.0
 30
0.0
  9
$PUCSYDIR
 10
0.0
 20
1.0
 30
0.0
  9
$PUCSORTHOREF
  2

  9
$PUCSORTHOVIEW
 70
     0
  9
$PUCSORGTOP
 10
0.0
 20
0.0
 30
0.0
  9
$PUCSORGBOTTOM
 10
0.0
 20
0.0
 30
0.0
  9
$PUCSORGLEFT
 10
0.0
 20
0.0
 30
0.0
  9
$PUCSORGRIGHT
 10
0.0
 20
0.0
 30
0.0
  9
$PUCSORGFRONT
 10
0.0
 20
0.0
 30
0.0
  9
$PUCSORGBACK
 10
0.0
 20
0.0
 30
0.0
  9
$USERI1
 70
     0
  9
$USERI2
 70
     0
  9
$USERI3
 70
     0
  9
$USERI4
 70
     0
  9
$USERI5
 70
     0
  9
$USERR1
 40
0.0
  9
$USERR2
 40
0.0
  9
$USERR3
 40
0.0
  9
$USERR4
 40
0.0
  9
$USERR5
 40
0.0
  9
$WORLDVIEW
 70
     1
  9
$SHADEDGE
 70
     3
  9
$SHADEDIF
 70
    70
  9
$TILEMODE
 70
     1
  9
$MAXACTVP
 70
    16
  9
$PINSBASE
 10
0.0
 20
0.0
 30
0.0
  9
$PLIMCHECK
 70
     0
  9
$PEXTMIN
 10
1.000000000000000E+20
 20
1.000000000000000E+20
 30
1.000000000000000E+20
  9
$PEXTMAX
 10
-1.000000000000000E+20
 20
-1.000000000000000E+20
 30
-1.000000000000000E+20
  9
$PLIMMIN
 10
0.0
 20
0.0
  9
$PLIMMAX
 10
12.0
 20
9.0
  9
$UNITMODE
 70
     0
  9
$VISRETAIN
 70
     0
  9
$PLINEGEN
 70
     0
  9
$PSLTSCALE
 70
     1
  9
$TREEDEPTH
 70
  3020
  9
$CMLSTYLE
  2
STANDARD
  9
$CMLJUST
 70
     0
  9
$CMLSCALE
 40
1.0
  9
$PROXYGRAPHICS
 70
     1
  9
$MEASUREMENT
 70
     0
  9
$CELWEIGHT
370
    -1
  9
$ENDCAPS
280
     0
  9
$JOINSTYLE
280
     0
  9
$LWDISPLAY
290
     0
  9
$INSUNITS
 70
     0
  9
$HYPERLINKBASE
  1

  9
$STYLESHEET
  1

  9
$XEDIT
290
     1
  9
$CEPSNTYPE
380
     0
  9
$PSTYLEMODE
290
     1
  9
$FINGERPRINTGUID
  2
{654C5C87-D5DD-11D6-B41D-0050BA12178D}
  9
$VERSIONGUID
  2
{613AE1C7-2D0E-4D65-8E8C-12D4861C22F4}
  9
$EXTNAMES
290
     1
  9
$PSVPSCALE
 40
0.0
  9
$OLESTARTUP
290
     0
  0
ENDSEC
  0
SECTION
  2
CLASSES
  0
CLASS
  1
OLE2FRAME
  2
AcDbOle2Frame
  3
AutoCAD 2000
 90
    32768
280
     0
281
     1
  0
CLASS
  1
ACDBDICTIONARYWDFLT
  2
AcDbDictionaryWithDefault
  3
AutoCAD 2000
 90
        0
280
     0
281
     0
  0
CLASS
  1
ACDBPLACEHOLDER
  2
AcDbPlaceHolder
  3
AutoCAD 2000
 90
        0
280
     0
281
     0
  0
CLASS
  1
LAYOUT
  2
AcDbLayout
  3
AutoCAD 2000
 90
        0
280
     0
281
     0
  0
ENDSEC
  0
SECTION
  2
TABLES
  0
TABLE
  2
VPORT
  5
14F3
330
0
100
AcDbSymbolTable
 70
     3
  0
VPORT
  5
3118
330
14F3
100
AcDbSymbolTableRecord
100
AcDbViewportTableRecord
  2
*Active
 70
     0
 10
0.0
 20
0.0
 11
1.0
 21
1.0
 12
639.3845975918284
 22
36.66727293336106
 13
0.0
 23
0.0
 14
1.0
 24
1.0
 15
0.0
 25
0.0
 16
0.0
 26
0.0
 36
1.0
 17
0.0
 27
0.0
 37
0.0
 40
63.97924192441104
 41
1.887814313346228
 42
50.0
 43
0.0
 44
0.0
 50
0.0
 51
0.0
 71
     0
 72
   100
 73
     1
 74
     0
 75
     0
 76
     0
 77
     0
 78
     0
281
     0
 65
     1
110
0.0
120
0.0
130
0.0
111
1.0
121
0.0
131
0.0
112
0.0
122
1.0
132
0.0
 79
     0
146
0.0
  0
ENDTAB
  0
TABLE
  2
LTYPE
  5
14F0
330
0
100
AcDbSymbolTable
 70
     4
  0
LTYPE
  5
14FD
330
14F0
100
AcDbSymbolTableRecord
100
AcDbLinetypeTableRecord
  2
BYBLOCK
 70
     0
  3

 72
    65
 73
     0
 40
0.0
  0
LTYPE
  5
14FE
330
14F0
100
AcDbSymbolTableRecord
100
AcDbLinetypeTableRecord
  2
BYLAYER
 70
     0
  3

 72
    65
 73
     0
 40
0.0
  0
LTYPE
  5
14FF
330
14F0
100
AcDbSymbolTableRecord
100
AcDbLinetypeTableRecord
  2
CONTINUOUS
 70
     0
  3
Solid line
 72
    65
 73
     0
 40
0.0
  0
LTYPE
  5
1512
330
14F0
100
AcDbSymbolTableRecord
100
AcDbLinetypeTableRecord
  2
AUSGEZOGEN
 70
     0
  3
_______________________________
 72
    65
 73
     0
 40
0.0
  0
LTYPE
  5
2181
330
14F0
100
AcDbSymbolTableRecord
100
AcDbLinetypeTableRecord
  2
MITTE
 70
     0
  3
____ _ ____ _ ____ _ ____ _ ____ _ ____ _ ____ 
 72
    65
 73
     4
 40
2.0
 49
1.25
 74
     0
 49
-0.25
 74
     0
 49
0.25
 74
     0
 49
-0.25
 74
     0
  0
LTYPE
  5
2E83
330
14F0
100
AcDbSymbolTableRecord
100
AcDbLinetypeTableRecord
  2
GESTRICHELT
 70
     0
  3
__ __ __ __ __ __ __ __ __ __ __ __ __ __ __ __
 72
    65
 73
     2
 40
0.75
 49
0.5
 74
     0
 49
-0.25
 74
     0
  0
ENDTAB
  0
TABLE
  2
LAYER
  5
14ED
330
0
100
AcDbSymbolTable
 70
    14
  0
LAYER
  5
14FA
330
14ED
100
AcDbSymbolTableRecord
100
AcDbLayerTableRecord
  2
0
 70
     0
 62
     1
  6
CONTINUOUS
370
    -3
390
3041
  0
LAYER
  5
1D3B
330
14ED
100
AcDbSymbolTableRecord
100
AcDbLayerTableRecord
  2
03-KONTUR
 70
     0
 62
     7
  6
AUSGEZOGEN
370
    -3
390
3041
  0
LAYER
  5
1E78
330
14ED
100
AcDbSymbolTableRecord
100
AcDbLayerTableRecord
  2
01-RAHMEN
 70
     0
 62
     7
  6
CONTINUOUS
370
    -3
390
3041
  0
LAYER
  5
1E7B
330
14ED
100
AcDbSymbolTableRecord
100
AcDbLayerTableRecord
  2
02-SCHRIFTKOPF
 70
     0
 62
     1
  6
CONTINUOUS
370
    -3
390
3041
  0
LAYER
  5
20D0
330
14ED
100
AcDbSymbolTableRecord
100
AcDbLayerTableRecord
  2
10-TEXT25
 70
     0
 62
     1
  6
CONTINUOUS
370
    -3
390
3041
  0
LAYER
  5
21A4
330
14ED
100
AcDbSymbolTableRecord
100
AcDbLayerTableRecord
  2
05-MITTELLINIE
 70
     0
 62
     6
  6
MITTE
370
    -3
390
3041
  0
LAYER
  5
21A8
330
14ED
100
AcDbSymbolTableRecord
100
AcDbLayerTableRecord
  2
09-BEMAßUNG
 70
     0
 62
     1
  6
CONTINUOUS
370
    -3
390
3041
  0
LAYER
  5
21BB
330
14ED
100
AcDbSymbolTableRecord
100
AcDbLayerTableRecord
  2
06-SCHRAFFUR
 70
     0
 62
     6
  6
CONTINUOUS
370
    -3
390
3041
  0
LAYER
  5
2296
330
14ED
100
AcDbSymbolTableRecord
100
AcDbLayerTableRecord
  2
DEFPOINTS
 70
     0
 62
     1
  6
AUSGEZOGEN
290
     0
370
    -3
390
3041
  0
LAYER
  5
2A8F
330
14ED
100
AcDbSymbolTableRecord
100
AcDbLayerTableRecord
  2
08-GEWINDE
 70
     0
 62
     1
  6
CONTINUOUS
370
    -3
390
3041
  0
LAYER
  5
2A91
330
14ED
100
AcDbSymbolTableRecord
100
AcDbLayerTableRecord
  2
07-BRUCHLINIE
 70
     0
 62
     1
  6
GESTRICHELT
370
    -3
390
3041
  0
LAYER
  5
2A95
330
14ED
100
AcDbSymbolTableRecord
100
AcDbLayerTableRecord
  2
03-KONTUR1
 70
     0
 62
     5
  6
CONTINUOUS
370
    -3
390
3041
  0
LAYER
  5
2E8E
330
14ED
100
AcDbSymbolTableRecord
100
AcDbLayerTableRecord
  2
2NNHHGF
 70
     0
 62
     1
  6
AUSGEZOGEN
370
    -3
390
3041
  0
LAYER
  5
3050
330
14ED
100
AcDbSymbolTableRecord
100
AcDbLayerTableRecord
  2
09-INDIZEES
 70
     0
 62
     1
  6
CONTINUOUS
370
    -3
390
3041
  0
ENDTAB
  0
TABLE
  2
STYLE
  5
14EE
330
0
100
AcDbSymbolTable
 70
     1
  0
STYLE
  5
14FB
330
14EE
100
AcDbSymbolTableRecord
100
AcDbTextStyleTableRecord
  2
STANDARD
 70
     0
 40
0.0
 41
0.8
 50
0.0
 71
     0
 42
5.0
  3
C:\Programme\AutoCAD LT\romans.shx
  4

  0
ENDTAB
  0
TABLE
  2
VIEW
  5
14F1
330
0
100
AcDbSymbolTable
 70
     0
  0
ENDTAB
  0
TABLE
  2
UCS
  5
14F2
330
0
100
AcDbSymbolTable
 70
     0
  0
ENDTAB
  0
TABLE
  2
APPID
  5
14F4
330
0
100
AcDbSymbolTable
 70
     1
  0
APPID
  5
14FC
330
14F4
100
AcDbSymbolTableRecord
100
AcDbRegAppTableRecord
  2
ACAD
 70
     0
  0
ENDTAB
  0
TABLE
  2
DIMSTYLE
  5
14F5
330
0
100
AcDbSymbolTable
 70
     1
100
AcDbDimStyleTable
 71
     0
  0
DIMSTYLE
105
1516
330
14F5
100
AcDbSymbolTableRecord
100
AcDbDimStyleTableRecord
  2
STANDARD
 70
     0
279
     2
340
14FB
  0
ENDTAB
  0
TABLE
  2
BLOCK_RECORD
  5
14EC
330
0
100
AcDbSymbolTable
 70
    12
  0
BLOCK_RECORD
  5
1503
330
14EC
100
AcDbSymbolTableRecord
100
AcDbBlockTableRecord
  2
*MODEL_SPACE
340
3044
  0
BLOCK_RECORD
  5
1500
330
14EC
100
AcDbSymbolTableRecord
100
AcDbBlockTableRecord
  2
*PAPER_SPACE
340
3045
  0
BLOCK_RECORD
  5
2E8F
330
14EC
100
AcDbSymbolTableRecord
100
AcDbBlockTableRecord
  2
A$C10B1
340
0
  0
BLOCK_RECORD
  5
302F
330
14EC
100
AcDbSymbolTableRecord
100
AcDbBlockTableRecord
  2
A$C40F4
340
0
  0
BLOCK_RECORD
  5
3049
330
14EC
100
AcDbSymbolTableRecord
100
AcDbBlockTableRecord
  2
A
340
0
  0
BLOCK_RECORD
  5
305D
330
14EC
100
AcDbSymbolTableRecord
100
AcDbBlockTableRecord
  2
STABMATERIAL
340
0
  0
BLOCK_RECORD
  5
3078
330
14EC
100
AcDbSymbolTableRecord
100
AcDbBlockTableRecord
  2
S355J2G3GEZOGEN
340
0
  0
BLOCK_RECORD
  5
3080
330
14EC
100
AcDbSymbolTableRecord
100
AcDbBlockTableRecord
  2
Adresse
340
0
310
28000000200000002000000001000800000000000004000000000000000000000000000000000000000000004000000080000000FF000000002000004020000080200000FF200000004000004040000080400000FF400000006000004060000080600000FF600000008000004080000080800000FF80000000A0000040A000
310
0080A00000FFA0000000C0000040C0000080C00000FFC0000000FF000040FF000080FF0000FFFF0000000020004000200080002000FF002000002020004020200080202000FF202000004020004040200080402000FF402000006020004060200080602000FF602000008020004080200080802000FF80200000A0200040A0
310
200080A02000FFA0200000C0200040C0200080C02000FFC0200000FF200040FF200080FF2000FFFF2000000040004000400080004000FF004000002040004020400080204000FF204000004040004040400080404000FF404000006040004060400080604000FF604000008040004080400080804000FF80400000A0400040
310
A0400080A04000FFA0400000C0400040C0400080C04000FFC0400000FF400040FF400080FF4000FFFF4000000060004000600080006000FF006000002060004020600080206000FF206000004060004040600080406000FF406000006060004060600080606000FF606000008060004080600080806000FF80600000A06000
310
40A0600080A06000FFA0600000C0600040C0600080C06000FFC0600000FF600040FF600080FF6000FFFF6000000080004000800080008000FF008000002080004020800080208000FF208000004080004040800080408000FF408000006080004060800080608000FF608000008080004080800080808000FF80800000A080
310
0040A0800080A08000FFA0800000C0800040C0800080C08000FFC0800000FF800040FF800080FF8000FFFF80000000A0004000A0008000A000FF00A0000020A0004020A0008020A000FF20A0000040A0004040A0008040A000FF40A0000060A0004060A0008060A000FF60A0000080A0004080A0008080A000FF80A00000A0
310
A00040A0A00080A0A000FFA0A00000C0A00040C0A00080C0A000FFC0A00000FFA00040FFA00080FFA000FFFFA0000000C0004000C0008000C000FF00C0000020C0004020C0008020C000FF20C0000040C0004040C0008040C000FF40C0000060C0004060C0008060C000FF60C0000080C0004080C0008080C000FF80C00000
310
A0C00040A0C00080A0C000FFA0C00000C0C00040C0C00080C0C000FFC0C00000FFC00040FFC00080FFC000FFFFC0000000FF004000FF008000FF00FF00FF000020FF004020FF008020FF00FF20FF000040FF004040FF008040FF00FF40FF000060FF004060FF008060FF00FF60FF000080FF004080FF008080FF00FF80FF00
310
00A0FF0040A0FF0080A0FF00FFA0FF0000C0FF0040C0FF0080C0FF00FFC0FF0000FFFF0040FFFF0080FFFF00FFFFFF00FFFFFFFFFFFFFFFFFFFFFFFFFFFFFFFFFFFFFFFFFFFFFFFFFFFFFFFFFFFFFFFFFFFFFFFFFFFFFFFFFFFFFFFFFFFFFFFFFFFFFFFFFFFFFFFFFFFFFFFFFFFFFFFFFFFFFFFFFFFFFFFFFFFFFFFFFFFFFF
310
FFFFFFFFFFFFFFFFFFFFFFFFFFFFFFFFFFFFFFFFFFFFFFFFFFFFFFFFFFFFFFFFFFFFFFFFFFFFFFFFFFFFFFFFFFFFFFFFFFFFFFFFFFFFFFFFFFFFFFFFFFFFFFFFFFFFFFFFFFFFFFFFFFFFFFFFFFFFFFFFFFFFFFFFFFFFFFFFFFFFFFFFFFFFFFFFFFFFFFFFFFFFFFFFFFFFFFFFFFFFFFFFFFFFFFFFFFFFFFFFFFFFFFFFFFFFFF
310
FFFFFFFFFFFFFFFFFFFFFFFFFFFFFFFFFFFFFFFFFFFFFFFFFFFFFFFFFFFFFFFFFFFFFFFFFFFFFFFFFFFFFFFFFFFFFFFFFFFFFFFFFFFFFFFFFFFFFFFFFFFFFFFFFFFFFFFFFFFFFFFFFFFFFFFFFFFFFFFFFFFFFFFFFFFFFFFFFFFFFFFFE3E3E3E3E3E3E3E3E3E3E3E3E3E3E3E3FFFFFFFFFFFFFFFFFFFFFFFFFFFFFFFFE3E3E3
310
E3E3E3E3E3E3E3E3E3E3E3E3E3FFFFFFFFFFFFFFFFE3E3E3E3E3E3FFFFE3E3E3E3E3E3E3E3E3E3E3E3E3E3E3E3E3E3E3E3E3FFFFFFE3FFE3E3E3E3FFFFE3E3E3E3E3E3E3E3E3E3E3E3E3E3E3E3E3E3E3E3E3FFFFFFE3E3E3E3FFFFFFFFFFE3E3E3E3E3E3E3E3FFE3E3FFE3E3E3FFE3E3E3FFFFFFFFE3E3E3FFFFFFFFFFE3E3
310
E3E3E3E3E3E3E3FFE3E3E3E3E3E3E3E3E3E3FFFFFFFFFFFFFFFFFFFFFFFFFFFFFFFFE3E3E3FFFFFFFFFFFFFFFFFFFFFFFFFFFFFFFFFFE3E3E3FFFFFFFFFFFFE3E3E3E3E3E3E3E3FFE3E3FFE3E3E3FFE3FFFFFFFFFFE3E3E3FFFFFFFFFFFFE3E3E3E3E3E3E3E3E3FFE3E3E3E3E3E3E3E3E3FFFFFFFFFFFFFFFFFFFFFFFFFFFF
310
FFFFFFFFFFFFFFFFFFFFFFFFFFFFFFFFFFFFFFFFFFFFFFE3E3E3E3E3E3E3E3E3E3E3E3E3E3E3FFFFFFFFFFFFFFFFFFFFFFFFFFFFFFFFFFE3FFE3E3E3E3FFE3FFFFFFFFFFFFFFE3FFFFFFFFFFFFFFFFFFFFFFFFFFFFFFE3E3E3E3E3E3E3E3E3E3E3E3E3E3E3E3E3E3E3E3E3E3E3E3E3E3E3E3E3E3FFFFE3E3E3E3E3E3E3FFE3
310
E3E3E3E3E3E3E3E3E3E3E3E3E3E3E3E3E3E3E3E3E3FFFFFFFFFFFFFFFFFFFFFFFFFFFFFFFFFFFFFFFFFFFFFFFFFFFFFFFFFFFFFFFFFFFFFFFFFFFFFFFFFFFFFFFFFFFFFFFFFFFFFFFFFFFFFFFFFFFFFFFFFFFFFFFFFFFFFFFFFFFFFFFFFFFFFFFFFFFFFFFFFFFFFFFFFFFFFFFFFFFFFFFFFFFFFFFFFFFFFFFFFFFFFFFFFFFF
310
FFFFFFFFFFFFFFFFFFFFFFFFFFFFFFFFFFFFFFFFFFFFFFFFFFFFFFFFFFFFFFFFFFFFFFFFFFFFFFFFFFFFFFFFFFFFFFFFFFFFFFFFFFFFFFFFFFFFFFFFFFFFFFFFFFFFFFFFFFFFFFFFFFFFFFFFFFFFFFFFFFFFFFFFFFFFFFFFFFFFFFFFFFFFFFFFFFFFFFFFFFFFFFFFFFFFFFFFFFFFFFFFFFFFFFFFFFFFFFFFFFFFFFFFFFFFFF
310
FFFFFFFFFFFFFFFFFFFFFFFFFFFFFFFFFFFFFFFFFFFFFFFFFFFFFFFFFFFFFFFFFFFFFFFFFFFFFFFFFFFFFFFFFFFFFFFFFFFFFFFFFFFFFFFF
  0
BLOCK_RECORD
  5
309A
330
14EC
100
AcDbSymbolTableRecord
100
AcDbBlockTableRecord
  2
B
340
0
  0
BLOCK_RECORD
  5
30DB
330
14EC
100
AcDbSymbolTableRecord
100
AcDbBlockTableRecord
  2
S355J2G3 (rund)
340
0
310
28000000200000002000000001000800000000000004000000000000000000000000000000000000000000004000000080000000FF000000002000004020000080200000FF200000004000004040000080400000FF400000006000004060000080600000FF600000008000004080000080800000FF80000000A0000040A000
310
0080A00000FFA0000000C0000040C0000080C00000FFC0000000FF000040FF000080FF0000FFFF0000000020004000200080002000FF002000002020004020200080202000FF202000004020004040200080402000FF402000006020004060200080602000FF602000008020004080200080802000FF80200000A0200040A0
310
200080A02000FFA0200000C0200040C0200080C02000FFC0200000FF200040FF200080FF2000FFFF2000000040004000400080004000FF004000002040004020400080204000FF204000004040004040400080404000FF404000006040004060400080604000FF604000008040004080400080804000FF80400000A0400040
310
A0400080A04000FFA0400000C0400040C0400080C04000FFC0400000FF400040FF400080FF4000FFFF4000000060004000600080006000FF006000002060004020600080206000FF206000004060004040600080406000FF406000006060004060600080606000FF606000008060004080600080806000FF80600000A06000
310
40A0600080A06000FFA0600000C0600040C0600080C06000FFC0600000FF600040FF600080FF6000FFFF6000000080004000800080008000FF008000002080004020800080208000FF208000004080004040800080408000FF408000006080004060800080608000FF608000008080004080800080808000FF80800000A080
310
0040A0800080A08000FFA0800000C0800040C0800080C08000FFC0800000FF800040FF800080FF8000FFFF80000000A0004000A0008000A000FF00A0000020A0004020A0008020A000FF20A0000040A0004040A0008040A000FF40A0000060A0004060A0008060A000FF60A0000080A0004080A0008080A000FF80A00000A0
310
A00040A0A00080A0A000FFA0A00000C0A00040C0A00080C0A000FFC0A00000FFA00040FFA00080FFA000FFFFA0000000C0004000C0008000C000FF00C0000020C0004020C0008020C000FF20C0000040C0004040C0008040C000FF40C0000060C0004060C0008060C000FF60C0000080C0004080C0008080C000FF80C00000
310
A0C00040A0C00080A0C000FFA0C00000C0C00040C0C00080C0C000FFC0C00000FFC00040FFC00080FFC000FFFFC0000000FF004000FF008000FF00FF00FF000020FF004020FF008020FF00FF20FF000040FF004040FF008040FF00FF40FF000060FF004060FF008060FF00FF60FF000080FF004080FF008080FF00FF80FF00
310
00A0FF0040A0FF0080A0FF00FFA0FF0000C0FF0040C0FF0080C0FF00FFC0FF0000FFFF0040FFFF0080FFFF00FFFFFF00FFFFFFFFFFFFFFFFFFFFFFFFFFFFFFFFFFFFFFFFFFFFFFFFFFFFFFFFFFFFFFFFFFFFFFFFFFFFFFFFFFFFFFFFFFFFFFFFFFFFFFFFFFFFFFFFFFFFFFFFFFFFFFFFFFFFFFFFFFFFFFFFFFFFFFFFFFFFFF
310
FFFFFFFFFFFFFFFFFFFFFFFFFFFFFFFFFFFFFFFFFFFFFFFFFFFFFFFFFFFFFFFFFFFFFFFFFFFFFFFFFFFFFFFFFFFFFFFFFFFFFFFFFFFFFFFFFFFFFFFFFFFFFFFFFFFFFFFFFFFFFFFFFFFFFFFFFFFFFFFFFFFFFFFFFFFFFFFFFFFFFFFFFFFFFFFFFFFFFFFFFFFFFFFFFFFFFFFFFFFFFFFFFFFFFFFFFFFFFFFFFFFFFFFFFFFFFF
310
FFFFFFFFFFFFFFFFFFFFFFFFFFFFFFFFFFFFFFFFFFFFFFFFFFFFFFFFFFFFFFFFFFFFFFFFFFFFFFFFFFFFFFFFFFFFFFFFFFFFFFFFFFFFFFFFFFFFFFFFFFFFFFFFFFFFFFFFFFFFFFFFFFFFFFFFFFFFFFFFFFFFFFFFFFFFFFFFFFFFFFFFFFFFFFFFFFFFFFFFFFFFFFFFFFFFFFFFFFFFFFFFFFFFFFFFFFFFFFFFFFFFFFFFFFFFFF
310
FFFFFFFFFFFFFFFFFFFFFFFFFFFFFFFFFFFFFFFFFFFFFFFFFFFFFFFFFFFFFFFFFFFFFFFFFFFFFFFFFFFFFFFFFFFFFFFFFFFFFFFFFFFFFFFFFFFFFFFFFFFFFFFFFFFFFFFFFFFFFFFFFFFFFFFFFFFFFFFFFFFFFFFFFFFFFFFFFFFFFFFFFFFFFFFFFFFFFFFFFFFFFFFFFFFFFFFFFFFFFFFFFFFFFFFFFFFFFFE0FFFFFFFFFFE0FF
310
FFE0FFFFE0FFE0FFFFFFFFFFFFFFFFE0FFFFFFFFFFE0E0E0E0E0E0E0E0E0E0E0E0E0E0E0E0E0E0E0E0E0E0E0E0E0E0E0E0E0E0FFFFE0E0E0E0E0E0E0E0E0E0E0E0E0E0E0E0E0E0E0E0E0E0E0E0E0FFFFFFE0E0FFFFFFFFFFFFFFFFFFFFFFFFFFFFFFFFFFFFFFFFFFFFFFFFFFFFE0FFFFFFFFFFFFFFFFFFFFFFFFFFFFFFFFFF
310
FFFFFFFFFFFFFFFFFFFFFFFFFFFFFFFFFFFFFFFFFFFFFFFFFFFFFFFFFFFFFFFFFFFFFFFFFFFFFFFFFFFFFFFFFFFFFFFFFFFFFFFFFFFFFFFFFFFFFFFFFFFFFFFFFFFFFFFFFFFFFFFFFFFFFFFFFFFFFFFFFFFFFFFFFFFFFFFFFFFFFFFFFFFFFFFFFFFFFFFFFFFFFFFFFFFFFFFFFFFFFFFFFFFFFFFFFFFFFFFFFFFFFFFFFFFFFF
310
FFFFFFFFFFFFFFFFFFFFFFFFFFFFFFFFFFFFFFFFFFFFFFFFFFFFFFFFFFFFFFFFFFFFFFFFFFFFFFFFFFFFFFFFFFFFFFFFFFFFFFFFFFFFFFFFFFFFFFFFFFFFFFFFFFFFFFFFFFFFFFFFFFFFFFFFFFFFFFFFFFFFFFFFFFFFFFFFFFFFFFFFFFFFFFFFFFFFFFFFFFFFFFFFFFFFFFFFFFFFFFFFFFFFFFFFFFFFFFFFFFFFFFFFFFFFFF
310
FFFFFFFFFFFFFFFFFFFFFFFFFFFFFFFFFFFFFFFFFFFFFFFFFFFFFFFFFFFFFFFFFFFFFFFFFFFFFFFFFFFFFFFFFFFFFFFFFFFFFFFFFFFFFFFFFFFFFFFFFFFFFFFFFFFFFFFFFFFFFFFFFFFFFFFFFFFFFFFFFFFFFFFFFFFFFFFFFFFFFFFFFFFFFFFFFFFFFFFFFFFFFFFFFFFFFFFFFFFFFFFFFFFFFFFFFFFFFFFFFFFFFFFFFFFFFF
310
FFFFFFFFFFFFFFFFFFFFFFFFFFFFFFFFFFFFFFFFFFFFFFFFFFFFFFFFFFFFFFFFFFFFFFFFFFFFFFFFFFFFFFFFFFFFFFFFFFFFFFFFFFFFFFFF
  0
ENDTAB
  0
ENDSEC
  0
SECTION
  2
BLOCKS
  0
BLOCK
  5
1521
330
1503
100
AcDbEntity
  8
0
 62
     6
100
AcDbBlockBegin
  2
*MODEL_SPACE
 70
     0
 10
0.0
 20
0.0
 30
0.0
  3
*MODEL_SPACE
  1

  0
ENDBLK
  5
1522
330
1503
100
AcDbEntity
  8
0
 62
     6
100
AcDbBlockEnd
  0
BLOCK
  5
151F
330
1500
100
AcDbEntity
 67
     1
  8
0
 62
     6
100
AcDbBlockBegin
  2
*PAPER_SPACE
 70
     0
 10
0.0
 20
0.0
 30
0.0
  3
*PAPER_SPACE
  1

  0
ENDBLK
  5
1520
330
1500
100
AcDbEntity
 67
     1
  8
0
 62
     6
100
AcDbBlockEnd
  0
BLOCK
  5
2F11
330
2E8F
100
AcDbEntity
  8
0
100
AcDbBlockBegin
  2
A$C10B1
 70
     0
 10
0.0
 20
0.0
 30
0.0
  3
A$C10B1
  1

  0
LINE
  5
2E90
330
2E8F
100
AcDbEntity
  8
03-KONTUR1
 48
10.0
100
AcDbLine
 10
26.86004479780445
 20
57.45885895586531
 30
0.0
 11
23.16223190393543
 21
57.45885895586531
 31
0.0
1001
ACAD
1000
ASC_BOUNDS
1002
{
1070
    19
1005
0
1005
0
1002
}
  0
LINE
  5
2E91
330
2E8F
100
AcDbEntity
  8
05-MITTELLINIE
 48
0.5
100
AcDbLine
 10
169.4853263618873
 20
37.7088589558653
 30
0.0
 11
0.1223351001369792
 21
37.7088589558653
 31
0.0
  0
LINE
  5
2E92
330
2E8F
100
AcDbEntity
  8
03-KONTUR1
 48
10.0
100
AcDbLine
 10
22.15699146187046
 20
37.7088589558653
 30
0.0
 11
18.83095430562127
 21
60.23273848837684
 31
0.0
  0
LINE
  5
2E93
330
2E8F
100
AcDbEntity
  8
03-KONTUR1
 48
10.0
100
AcDbLine
 10
24.77860787907582
 20
37.7088589558653
 30
0.0
 11
21.82283989065751
 21
57.72528059207591
 31
0.0
  0
LINE
  5
2E94
330
2E8F
100
AcDbEntity
  8
03-KONTUR1
 48
10.0
100
AcDbLine
 10
11.78160284889111
 20
37.7088589558653
 30
0.0
 11
8.825834860472923
 21
57.72528059207591
 31
0.0
  0
LINE
  5
2E95
330
2E8F
100
AcDbEntity
  8
03-KONTUR1
 48
10.0
100
AcDbLine
 10
14.62005172188639
 20
37.7088589558653
 30
0.0
 11
11.29401456563721
 21
60.23273848837684
 31
0.0
  0
LINE
  5
2E96
330
2E8F
100
AcDbEntity
  8
03-KONTUR1
 48
10.0
100
AcDbLine
 10
4.881300048594653
 20
37.7088589558653
 30
0.0
 11
4.237919697165352
 21
42.0658221671596
 31
0.0
  0
ARC
  5
2E97
330
2E8F
100
AcDbEntity
  8
03-KONTUR1
 48
10.0
100
AcDbCircle
 10
6.962736967323394
 20
60.95885895586542
 30
0.0
 40
3.5
100
AcDbArc
 50
270.0
 51
315.0
1001
ACAD
1000
ASC_BOUNDS
1002
{
1070
    19
1005
0
1005
0
1002
}
  0
LINE
  5
2E98
330
2E8F
100
AcDbEntity
  8
03-KONTUR1
 48
10.0
100
AcDbLine
 10
4.052812494804356
 20
57.45885895586529
 30
0.0
 11
6.96273696732328
 21
57.45885895586531
 31
0.0
1001
ACAD
1000
ASC_BOUNDS
1002
{
1070
    19
1005
0
1005
0
1002
}
  0
LINE
  5
2E99
330
2E8F
100
AcDbEntity
  8
03-KONTUR1
 48
10.0
100
AcDbLine
 10
11.6766979980025
 20
60.30885895586556
 30
0.0
 11
18.4482708732562
 21
60.30885895586556
 31
0.0
1001
ACAD
1000
ASC_BOUNDS
1002
{
1070
    19
1005
0
1005
0
1002
}
  0
ARC
  5
2E9A
330
2E8F
100
AcDbEntity
  8
03-KONTUR1
 48
10.0
100
AcDbCircle
 10
11.6766979980025
 20
59.30885895586555
 30
0.0
 40
1.0
100
AcDbArc
 50
90.0
 51
134.9999999999997
1001
ACAD
1000
ASC_BOUNDS
1002
{
1070
    19
1005
0
1005
0
1002
}
  0
LINE
  5
2E9B
330
2E8F
100
AcDbEntity
  8
03-KONTUR1
 48
10.0
100
AcDbLine
 10
9.43761070147616
 20
58.48398522171243
 30
0.0
 11
10.96959121681595
 21
60.01596573705211
 31
0.0
1001
ACAD
1000
ASC_BOUNDS
1002
{
1070
    19
1005
0
1005
0
1002
}
  0
ARC
  5
2E9C
330
2E8F
100
AcDbEntity
  8
03-KONTUR1
 48
10.0
100
AcDbCircle
 10
18.4482708732562
 20
59.30885895586555
 30
0.0
 40
1.0
100
AcDbArc
 50
45.00000000000026
 51
90.0
1001
ACAD
1000
ASC_BOUNDS
1002
{
1070
    19
1005
0
1005
0
1002
}
  0
ARC
  5
2E9D
330
2E8F
100
AcDbEntity
  8
03-KONTUR1
 48
10.0
100
AcDbCircle
 10
23.16223190393532
 20
60.95885895586542
 30
0.0
 40
3.5
100
AcDbArc
 50
225.0
 51
270.0
1001
ACAD
1000
ASC_BOUNDS
1002
{
1070
    19
1005
0
1005
0
1002
}
  0
LINE
  5
2E9E
330
2E8F
100
AcDbEntity
  8
03-KONTUR1
 48
10.0
100
AcDbLine
 10
20.68735816978255
 20
58.48398522171243
 30
0.0
 11
19.15537765444275
 21
60.01596573705211
 31
0.0
1001
ACAD
1000
ASC_BOUNDS
1002
{
1070
    19
1005
0
1005
0
1002
}
  0
LINE
  5
2E9F
330
2E8F
100
AcDbEntity
  8
03-KONTUR1
 48
10.0
100
AcDbLine
 10
161.4381462752382
 20
37.7088589558653
 30
0.0
 11
158.1121091189892
 21
60.23273848837684
 31
0.0
  0
LINE
  5
2EA0
330
2E8F
100
AcDbEntity
  8
03-KONTUR1
 48
10.0
100
AcDbLine
 10
141.5408384447572
 20
37.7088589558653
 30
0.0
 11
138.214801288508
 21
60.23273848837684
 31
0.0
  0
LINE
  5
2EA1
330
2E8F
100
AcDbEntity
  8
03-KONTUR1
 48
10.0
100
AcDbLine
 10
144.1624548619624
 20
37.7088589558653
 30
0.0
 11
141.2066868735442
 21
57.72528059207591
 31
0.0
  0
LINE
  5
2EA2
330
2E8F
100
AcDbEntity
  8
03-KONTUR1
 48
10.0
100
AcDbLine
 10
131.1654498317778
 20
37.7088589558653
 30
0.0
 11
128.2096818433597
 21
57.72528059207591
 31
0.0
  0
LINE
  5
2EA3
330
2E8F
100
AcDbEntity
  8
03-KONTUR1
 48
10.0
100
AcDbLine
 10
134.0038987047731
 20
37.7088589558653
 30
0.0
 11
130.6778615485239
 21
60.23273848837684
 31
0.0
  0
LINE
  5
2EA4
330
2E8F
100
AcDbEntity
  8
03-KONTUR1
 48
10.0
100
AcDbLine
 10
151.0627576622591
 20
37.7088589558653
 30
0.0
 11
148.1069896738408
 21
57.72528059207591
 31
0.0
  0
LINE
  5
2EA5
330
2E8F
100
AcDbEntity
  8
03-KONTUR1
 48
10.0
100
AcDbLine
 10
153.9012065352542
 20
37.7088589558653
 30
0.0
 11
150.5751693790051
 21
60.23273848837684
 31
0.0
  0
LINE
  5
2EA6
330
2E8F
100
AcDbEntity
  8
03-KONTUR1
 48
10.0
100
AcDbLine
 10
164.0597626924436
 20
37.7088589558653
 30
0.0
 11
161.1039947040254
 21
57.72528059207591
 31
0.0
  0
LINE
  5
2EA7
330
2E8F
100
AcDbEntity
  8
03-KONTUR1
 48
10.0
100
AcDbLine
 10
104.3678392010002
 20
37.7088589558653
 30
0.0
 11
101.412071212582
 21
57.72528059207591
 31
0.0
  0
LINE
  5
2EA8
330
2E8F
100
AcDbEntity
  8
03-KONTUR1
 48
10.0
100
AcDbLine
 10
94.20928304381083
 20
37.7088589558653
 30
0.0
 11
90.88324588756178
 21
60.23273848837684
 31
0.0
  0
LINE
  5
2EA9
330
2E8F
100
AcDbEntity
  8
03-KONTUR1
 48
10.0
100
AcDbLine
 10
101.7462227837949
 20
37.7088589558653
 30
0.0
 11
98.42018562754583
 21
60.23273848837684
 31
0.0
  0
LINE
  5
2EAA
330
2E8F
100
AcDbEntity
  8
03-KONTUR1
 48
10.0
100
AcDbLine
 10
124.2651470314814
 20
37.7088589558653
 30
0.0
 11
121.3093790430632
 21
57.72528059207591
 31
0.0
  0
LINE
  5
2EAB
330
2E8F
100
AcDbEntity
  8
03-KONTUR1
 48
10.0
100
AcDbLine
 10
114.106590874292
 20
37.7088589558653
 30
0.0
 11
110.7805537180429
 21
60.23273848837684
 31
0.0
  0
LINE
  5
2EAC
330
2E8F
100
AcDbEntity
  8
03-KONTUR1
 48
10.0
100
AcDbLine
 10
111.2681420012969
 20
37.7088589558653
 30
0.0
 11
108.3123740128786
 21
57.72528059207591
 31
0.0
  0
LINE
  5
2EAD
330
2E8F
100
AcDbEntity
  8
03-KONTUR1
 48
10.0
100
AcDbLine
 10
121.643530614276
 20
37.7088589558653
 30
0.0
 11
118.317493458027
 21
60.23273848837684
 31
0.0
  0
LINE
  5
2EAE
330
2E8F
100
AcDbEntity
  8
03-KONTUR1
 48
10.0
100
AcDbLine
 10
61.95160712283268
 20
37.7088589558653
 30
0.0
 11
58.62556996658361
 21
60.23273848837684
 31
0.0
  0
LINE
  5
2EAF
330
2E8F
100
AcDbEntity
  8
03-KONTUR1
 48
10.0
100
AcDbLine
 10
64.57322354003804
 20
37.7088589558653
 30
0.0
 11
61.61745555161985
 21
57.72528059207591
 31
0.0
  0
LINE
  5
2EB0
330
2E8F
100
AcDbEntity
  8
03-KONTUR1
 48
10.0
100
AcDbLine
 10
74.31197521332979
 20
37.7088589558653
 30
0.0
 11
70.9859380570806
 21
60.23273848837684
 31
0.0
  0
LINE
  5
2EB1
330
2E8F
100
AcDbEntity
  8
03-KONTUR1
 48
10.0
100
AcDbLine
 10
71.4735263403345
 20
37.7088589558653
 30
0.0
 11
68.51775835191631
 21
57.72528059207591
 31
0.0
  0
LINE
  5
2EB2
330
2E8F
100
AcDbEntity
  8
03-KONTUR1
 48
10.0
100
AcDbLine
 10
84.47053137051909
 20
37.7088589558653
 30
0.0
 11
81.51476338210091
 21
57.72528059207591
 31
0.0
  0
LINE
  5
2EB3
330
2E8F
100
AcDbEntity
  8
03-KONTUR1
 48
10.0
100
AcDbLine
 10
81.84891495331385
 20
37.7088589558653
 30
0.0
 11
78.52287779706466
 21
60.23273848837684
 31
0.0
  0
LINE
  5
2EB4
330
2E8F
100
AcDbEntity
  8
03-KONTUR1
 48
10.0
100
AcDbLine
 10
91.37083417081578
 20
37.7088589558653
 30
0.0
 11
88.41506618239748
 21
57.72528059207591
 31
0.0
  0
LINE
  5
2EB5
330
2E8F
100
AcDbEntity
  8
03-KONTUR1
 48
10.0
100
AcDbLine
 10
42.05429929235163
 20
37.7088589558653
 30
0.0
 11
38.72826213610244
 21
60.23273848837684
 31
0.0
  0
LINE
  5
2EB6
330
2E8F
100
AcDbEntity
  8
03-KONTUR1
 48
10.0
100
AcDbLine
 10
44.67591570955687
 20
37.7088589558653
 30
0.0
 11
41.72014772113868
 21
57.72528059207591
 31
0.0
  0
LINE
  5
2EB7
330
2E8F
100
AcDbEntity
  8
03-KONTUR1
 48
10.0
100
AcDbLine
 10
31.67891067937228
 20
37.7088589558653
 30
0.0
 11
28.72314269095409
 21
57.72528059207591
 31
0.0
  0
LINE
  5
2EB8
330
2E8F
100
AcDbEntity
  8
03-KONTUR1
 48
10.0
100
AcDbLine
 10
34.51735955236756
 20
37.7088589558653
 30
0.0
 11
31.19132239611838
 21
60.23273848837684
 31
0.0
  0
LINE
  5
2EB9
330
2E8F
100
AcDbEntity
  8
03-KONTUR1
 48
10.0
100
AcDbLine
 10
51.57621850985356
 20
37.7088589558653
 30
0.0
 11
48.62045052143526
 21
57.72528059207591
 31
0.0
  0
LINE
  5
2EBA
330
2E8F
100
AcDbEntity
  8
03-KONTUR1
 48
10.0
100
AcDbLine
 10
54.41466738284862
 20
37.7088589558653
 30
0.0
 11
51.08863022659955
 21
60.23273848837684
 31
0.0
  0
LINE
  5
2EBB
330
2E8F
100
AcDbEntity
  8
03-KONTUR1
 48
10.0
100
AcDbLine
 10
98.03750219518077
 20
60.30885895586556
 30
0.0
 11
91.26592931992707
 21
60.30885895586556
 31
0.0
1001
ACAD
1000
ASC_BOUNDS
1002
{
1070
    19
1005
0
1005
0
1002
}
  0
ARC
  5
2EBC
330
2E8F
100
AcDbEntity
  8
03-KONTUR1
 48
10.0
100
AcDbCircle
 10
62.95684756489766
 20
60.95885895586542
 30
0.0
 40
3.5
100
AcDbArc
 50
225.0
 51
270.0
1001
ACAD
1000
ASC_BOUNDS
1002
{
1070
    19
1005
0
1005
0
1002
}
  0
LINE
  5
2EBD
330
2E8F
100
AcDbEntity
  8
03-KONTUR1
 48
10.0
100
AcDbLine
 10
43.0595397344166
 20
57.45885895586531
 30
0.0
 11
46.75735262828561
 21
57.45885895586531
 31
0.0
1001
ACAD
1000
ASC_BOUNDS
1002
{
1070
    19
1005
0
1005
0
1002
}
  0
LINE
  5
2EBE
330
2E8F
100
AcDbEntity
  8
03-KONTUR1
 48
10.0
100
AcDbLine
 10
38.34557870373737
 20
60.30885895586556
 30
0.0
 11
31.57400582848367
 21
60.30885895586556
 31
0.0
1001
ACAD
1000
ASC_BOUNDS
1002
{
1070
    19
1005
0
1005
0
1002
}
  0
ARC
  5
2EBF
330
2E8F
100
AcDbEntity
  8
03-KONTUR1
 48
10.0
100
AcDbCircle
 10
31.57400582848345
 20
59.30885895586555
 30
0.0
 40
1.0
100
AcDbArc
 50
90.0
 51
134.9999999999997
1001
ACAD
1000
ASC_BOUNDS
1002
{
1070
    19
1005
0
1005
0
1002
}
  0
ARC
  5
2EC0
330
2E8F
100
AcDbEntity
  8
03-KONTUR1
 48
10.0
100
AcDbCircle
 10
26.86004479780433
 20
60.95885895586542
 30
0.0
 40
3.5
100
AcDbArc
 50
270.0
 51
315.0
1001
ACAD
1000
ASC_BOUNDS
1002
{
1070
    19
1005
0
1005
0
1002
}
  0
LINE
  5
2EC1
330
2E8F
100
AcDbEntity
  8
03-KONTUR1
 48
10.0
100
AcDbLine
 10
29.3349185319571
 20
58.48398522171243
 30
0.0
 11
30.8668990472969
 21
60.01596573705211
 31
0.0
1001
ACAD
1000
ASC_BOUNDS
1002
{
1070
    19
1005
0
1005
0
1002
}
  0
ARC
  5
2EC2
330
2E8F
100
AcDbEntity
  8
03-KONTUR1
 48
10.0
100
AcDbCircle
 10
38.34557870373737
 20
59.30885895586555
 30
0.0
 40
1.0
100
AcDbArc
 50
45.00000000000026
 51
90.0
1001
ACAD
1000
ASC_BOUNDS
1002
{
1070
    19
1005
0
1005
0
1002
}
  0
ARC
  5
2EC3
330
2E8F
100
AcDbEntity
  8
03-KONTUR1
 48
10.0
100
AcDbCircle
 10
43.05953973441648
 20
60.95885895586542
 30
0.0
 40
3.5
100
AcDbArc
 50
225.0
 51
270.0
1001
ACAD
1000
ASC_BOUNDS
1002
{
1070
    19
1005
0
1005
0
1002
}
  0
LINE
  5
2EC4
330
2E8F
100
AcDbEntity
  8
03-KONTUR1
 48
10.0
100
AcDbLine
 10
40.58466600026372
 20
58.48398522171243
 30
0.0
 11
39.05268548492392
 21
60.01596573705211
 31
0.0
1001
ACAD
1000
ASC_BOUNDS
1002
{
1070
    19
1005
0
1005
0
1002
}
  0
LINE
  5
2EC5
330
2E8F
100
AcDbEntity
  8
03-KONTUR1
 48
10.0
100
AcDbLine
 10
58.24288653421854
 20
60.30885895586556
 30
0.0
 11
51.47131365896484
 21
60.30885895586556
 31
0.0
1001
ACAD
1000
ASC_BOUNDS
1002
{
1070
    19
1005
0
1005
0
1002
}
  0
ARC
  5
2EC6
330
2E8F
100
AcDbEntity
  8
03-KONTUR1
 48
10.0
100
AcDbCircle
 10
51.47131365896484
 20
59.30885895586555
 30
0.0
 40
1.0
100
AcDbArc
 50
90.0
 51
134.9999999999997
1001
ACAD
1000
ASC_BOUNDS
1002
{
1070
    19
1005
0
1005
0
1002
}
  0
ARC
  5
2EC7
330
2E8F
100
AcDbEntity
  8
03-KONTUR1
 48
10.0
100
AcDbCircle
 10
46.75735262828573
 20
60.95885895586542
 30
0.0
 40
3.5
100
AcDbArc
 50
270.0
 51
315.0
1001
ACAD
1000
ASC_BOUNDS
1002
{
1070
    19
1005
0
1005
0
1002
}
  0
LINE
  5
2EC8
330
2E8F
100
AcDbEntity
  8
03-KONTUR1
 48
10.0
100
AcDbLine
 10
49.23222636243861
 20
58.48398522171243
 30
0.0
 11
50.76420687777829
 21
60.01596573705211
 31
0.0
1001
ACAD
1000
ASC_BOUNDS
1002
{
1070
    19
1005
0
1005
0
1002
}
  0
ARC
  5
2EC9
330
2E8F
100
AcDbEntity
  8
03-KONTUR1
 48
10.0
100
AcDbCircle
 10
58.24288653421854
 20
59.30885895586555
 30
0.0
 40
1.0
100
AcDbArc
 50
45.00000000000026
 51
90.0
1001
ACAD
1000
ASC_BOUNDS
1002
{
1070
    19
1005
0
1005
0
1002
}
  0
LINE
  5
2ECA
330
2E8F
100
AcDbEntity
  8
03-KONTUR1
 48
10.0
100
AcDbLine
 10
60.48197383074477
 20
58.48398522171243
 30
0.0
 11
58.9499933154051
 21
60.01596573705211
 31
0.0
1001
ACAD
1000
ASC_BOUNDS
1002
{
1070
    19
1005
0
1005
0
1002
}
  0
LINE
  5
2ECB
330
2E8F
100
AcDbEntity
  8
03-KONTUR1
 48
10.0
100
AcDbLine
 10
80.37928166122595
 20
58.48398522171243
 30
0.0
 11
78.84730114588615
 21
60.01596573705211
 31
0.0
1001
ACAD
1000
ASC_BOUNDS
1002
{
1070
    19
1005
0
1005
0
1002
}
  0
LINE
  5
2ECC
330
2E8F
100
AcDbEntity
  8
03-KONTUR1
 48
10.0
100
AcDbLine
 10
69.12953419291932
 20
58.48398522171243
 30
0.0
 11
70.66151470825912
 21
60.01596573705211
 31
0.0
1001
ACAD
1000
ASC_BOUNDS
1002
{
1070
    19
1005
0
1005
0
1002
}
  0
ARC
  5
2ECD
330
2E8F
100
AcDbEntity
  8
03-KONTUR1
 48
10.0
100
AcDbCircle
 10
66.65466045876655
 20
60.95885895586542
 30
0.0
 40
3.5
100
AcDbArc
 50
270.0
 51
315.0
1001
ACAD
1000
ASC_BOUNDS
1002
{
1070
    19
1005
0
1005
0
1002
}
  0
LINE
  5
2ECE
330
2E8F
100
AcDbEntity
  8
03-KONTUR1
 48
10.0
100
AcDbLine
 10
66.65466045876667
 20
57.45885895586531
 30
0.0
 11
62.95684756489777
 21
57.45885895586531
 31
0.0
1001
ACAD
1000
ASC_BOUNDS
1002
{
1070
    19
1005
0
1005
0
1002
}
  0
ARC
  5
2ECF
330
2E8F
100
AcDbEntity
  8
03-KONTUR1
 48
10.0
100
AcDbCircle
 10
78.14019436469959
 20
59.30885895586555
 30
0.0
 40
1.0
100
AcDbArc
 50
45.00000000000026
 51
90.0
1001
ACAD
1000
ASC_BOUNDS
1002
{
1070
    19
1005
0
1005
0
1002
}
  0
LINE
  5
2ED0
330
2E8F
100
AcDbEntity
  8
03-KONTUR1
 48
10.0
100
AcDbLine
 10
78.14019436469959
 20
60.30885895586556
 30
0.0
 11
71.3686214894459
 21
60.30885895586556
 31
0.0
1001
ACAD
1000
ASC_BOUNDS
1002
{
1070
    19
1005
0
1005
0
1002
}
  0
ARC
  5
2ED1
330
2E8F
100
AcDbEntity
  8
03-KONTUR1
 48
10.0
100
AcDbCircle
 10
71.36862148944567
 20
59.30885895586555
 30
0.0
 40
1.0
100
AcDbArc
 50
90.0
 51
134.9999999999997
1001
ACAD
1000
ASC_BOUNDS
1002
{
1070
    19
1005
0
1005
0
1002
}
  0
ARC
  5
2ED2
330
2E8F
100
AcDbEntity
  8
03-KONTUR1
 48
10.0
100
AcDbCircle
 10
86.55196828924795
 20
60.95885895586542
 30
0.0
 40
3.5
100
AcDbArc
 50
270.0
 51
315.0
1001
ACAD
1000
ASC_BOUNDS
1002
{
1070
    19
1005
0
1005
0
1002
}
  0
LINE
  5
2ED3
330
2E8F
100
AcDbEntity
  8
03-KONTUR1
 48
10.0
100
AcDbLine
 10
82.85415539537883
 20
57.45885895586531
 30
0.0
 11
86.55196828924784
 21
57.45885895586531
 31
0.0
1001
ACAD
1000
ASC_BOUNDS
1002
{
1070
    19
1005
0
1005
0
1002
}
  0
ARC
  5
2ED4
330
2E8F
100
AcDbEntity
  8
03-KONTUR1
 48
10.0
100
AcDbCircle
 10
82.8541553953787
 20
60.95885895586542
 30
0.0
 40
3.5
100
AcDbArc
 50
225.0
 51
270.0
1001
ACAD
1000
ASC_BOUNDS
1002
{
1070
    19
1005
0
1005
0
1002
}
  0
ARC
  5
2ED5
330
2E8F
100
AcDbEntity
  8
03-KONTUR1
 48
10.0
100
AcDbCircle
 10
91.26592931992707
 20
59.30885895586555
 30
0.0
 40
1.0
100
AcDbArc
 50
90.0
 51
134.9999999999997
1001
ACAD
1000
ASC_BOUNDS
1002
{
1070
    19
1005
0
1005
0
1002
}
  0
LINE
  5
2ED6
330
2E8F
100
AcDbEntity
  8
03-KONTUR1
 48
10.0
100
AcDbLine
 10
89.02684202340083
 20
58.48398522171243
 30
0.0
 11
90.55882253874051
 21
60.01596573705211
 31
0.0
1001
ACAD
1000
ASC_BOUNDS
1002
{
1070
    19
1005
0
1005
0
1002
}
  0
LINE
  5
2ED7
330
2E8F
100
AcDbEntity
  8
03-KONTUR1
 48
10.0
100
AcDbLine
 10
137.8321178561429
 20
60.30885895586556
 30
0.0
 11
131.0605449808892
 21
60.30885895586556
 31
0.0
1001
ACAD
1000
ASC_BOUNDS
1002
{
1070
    19
1005
0
1005
0
1002
}
  0
LINE
  5
2ED8
330
2E8F
100
AcDbEntity
  8
03-KONTUR1
 48
10.0
100
AcDbLine
 10
117.9348100256619
 20
60.30885895586556
 30
0.0
 11
111.1632371504082
 21
60.30885895586556
 31
0.0
1001
ACAD
1000
ASC_BOUNDS
1002
{
1070
    19
1005
0
1005
0
1002
}
  0
ARC
  5
2ED9
330
2E8F
100
AcDbEntity
  8
03-KONTUR1
 48
10.0
100
AcDbCircle
 10
106.4492761197291
 20
60.95885895586542
 30
0.0
 40
3.5
100
AcDbArc
 50
270.0
 51
315.0
1001
ACAD
1000
ASC_BOUNDS
1002
{
1070
    19
1005
0
1005
0
1002
}
  0
LINE
  5
2EDA
330
2E8F
100
AcDbEntity
  8
03-KONTUR1
 48
10.0
100
AcDbLine
 10
106.4492761197288
 20
57.45885895586531
 30
0.0
 11
102.7514632258599
 21
57.45885895586531
 31
0.0
1001
ACAD
1000
ASC_BOUNDS
1002
{
1070
    19
1005
0
1005
0
1002
}
  0
ARC
  5
2EDB
330
2E8F
100
AcDbEntity
  8
03-KONTUR1
 48
10.0
100
AcDbCircle
 10
102.7514632258598
 20
60.95885895586542
 30
0.0
 40
3.5
100
AcDbArc
 50
225.0
 51
270.0
1001
ACAD
1000
ASC_BOUNDS
1002
{
1070
    19
1005
0
1005
0
1002
}
  0
ARC
  5
2EDC
330
2E8F
100
AcDbEntity
  8
03-KONTUR1
 48
10.0
100
AcDbCircle
 10
98.03750219518077
 20
59.30885895586555
 30
0.0
 40
1.0
100
AcDbArc
 50
45.00000000000026
 51
90.0
1001
ACAD
1000
ASC_BOUNDS
1002
{
1070
    19
1005
0
1005
0
1002
}
  0
LINE
  5
2EDD
330
2E8F
100
AcDbEntity
  8
03-KONTUR1
 48
10.0
100
AcDbLine
 10
100.2765894917069
 20
58.48398522171243
 30
0.0
 11
98.74460897636732
 21
60.01596573705211
 31
0.0
1001
ACAD
1000
ASC_BOUNDS
1002
{
1070
    19
1005
0
1005
0
1002
}
  0
ARC
  5
2EDE
330
2E8F
100
AcDbEntity
  8
03-KONTUR1
 48
10.0
100
AcDbCircle
 10
111.1632371504082
 20
59.30885895586555
 30
0.0
 40
1.0
100
AcDbArc
 50
90.0
 51
134.9999999999997
1001
ACAD
1000
ASC_BOUNDS
1002
{
1070
    19
1005
0
1005
0
1002
}
  0
LINE
  5
2EDF
330
2E8F
100
AcDbEntity
  8
03-KONTUR1
 48
10.0
100
AcDbLine
 10
108.924149853882
 20
58.48398522171243
 30
0.0
 11
110.4561303692216
 21
60.01596573705211
 31
0.0
1001
ACAD
1000
ASC_BOUNDS
1002
{
1070
    19
1005
0
1005
0
1002
}
  0
LINE
  5
2EE0
330
2E8F
100
AcDbEntity
  8
03-KONTUR1
 48
10.0
100
AcDbLine
 10
126.34658395021
 20
57.45885895586531
 30
0.0
 11
122.6487710563411
 21
57.45885895586531
 31
0.0
1001
ACAD
1000
ASC_BOUNDS
1002
{
1070
    19
1005
0
1005
0
1002
}
  0
ARC
  5
2EE1
330
2E8F
100
AcDbEntity
  8
03-KONTUR1
 48
10.0
100
AcDbCircle
 10
117.9348100256619
 20
59.30885895586555
 30
0.0
 40
1.0
100
AcDbArc
 50
45.00000000000026
 51
90.0
1001
ACAD
1000
ASC_BOUNDS
1002
{
1070
    19
1005
0
1005
0
1002
}
  0
ARC
  5
2EE2
330
2E8F
100
AcDbEntity
  8
03-KONTUR1
 48
10.0
100
AcDbCircle
 10
122.648771056341
 20
60.95885895586542
 30
0.0
 40
3.5
100
AcDbArc
 50
225.0
 51
270.0
1001
ACAD
1000
ASC_BOUNDS
1002
{
1070
    19
1005
0
1005
0
1002
}
  0
LINE
  5
2EE3
330
2E8F
100
AcDbEntity
  8
03-KONTUR1
 48
10.0
100
AcDbLine
 10
120.1738973221881
 20
58.48398522171243
 30
0.0
 11
118.6419168068484
 21
60.01596573705211
 31
0.0
1001
ACAD
1000
ASC_BOUNDS
1002
{
1070
    19
1005
0
1005
0
1002
}
  0
ARC
  5
2EE4
330
2E8F
100
AcDbEntity
  8
03-KONTUR1
 48
10.0
100
AcDbCircle
 10
131.060544980889
 20
59.30885895586555
 30
0.0
 40
1.0
100
AcDbArc
 50
90.0
 51
134.9999999999997
1001
ACAD
1000
ASC_BOUNDS
1002
{
1070
    19
1005
0
1005
0
1002
}
  0
ARC
  5
2EE5
330
2E8F
100
AcDbEntity
  8
03-KONTUR1
 48
10.0
100
AcDbCircle
 10
126.3465839502099
 20
60.95885895586542
 30
0.0
 40
3.5
100
AcDbArc
 50
270.0
 51
315.0
1001
ACAD
1000
ASC_BOUNDS
1002
{
1070
    19
1005
0
1005
0
1002
}
  0
LINE
  5
2EE6
330
2E8F
100
AcDbEntity
  8
03-KONTUR1
 48
10.0
100
AcDbLine
 10
128.8214576843627
 20
58.48398522171243
 30
0.0
 11
130.3534381997025
 21
60.01596573705211
 31
0.0
1001
ACAD
1000
ASC_BOUNDS
1002
{
1070
    19
1005
0
1005
0
1002
}
  0
LINE
  5
2EE7
330
2E8F
100
AcDbEntity
  8
03-KONTUR1
 48
10.0
100
AcDbLine
 10
157.7294256866241
 20
60.30885895586556
 30
0.0
 11
150.9578528113704
 21
60.30885895586556
 31
0.0
1001
ACAD
1000
ASC_BOUNDS
1002
{
1070
    19
1005
0
1005
0
1002
}
  0
LINE
  5
2EE8
330
2E8F
100
AcDbEntity
  8
03-KONTUR1
 48
10.0
100
AcDbLine
 10
142.5460788868222
 20
57.45885895586531
 30
0.0
 11
146.2438917806912
 21
57.45885895586531
 31
0.0
1001
ACAD
1000
ASC_BOUNDS
1002
{
1070
    19
1005
0
1005
0
1002
}
  0
ARC
  5
2EE9
330
2E8F
100
AcDbEntity
  8
03-KONTUR1
 48
10.0
100
AcDbCircle
 10
142.5460788868221
 20
60.95885895586542
 30
0.0
 40
3.5
100
AcDbArc
 50
225.0
 51
270.0
1001
ACAD
1000
ASC_BOUNDS
1002
{
1070
    19
1005
0
1005
0
1002
}
  0
LINE
  5
2EEA
330
2E8F
100
AcDbEntity
  8
03-KONTUR1
 48
10.0
100
AcDbLine
 10
140.0712051526693
 20
58.48398522171243
 30
0.0
 11
138.5392246373295
 21
60.01596573705211
 31
0.0
1001
ACAD
1000
ASC_BOUNDS
1002
{
1070
    19
1005
0
1005
0
1002
}
  0
ARC
  5
2EEB
330
2E8F
100
AcDbEntity
  8
03-KONTUR1
 48
10.0
100
AcDbCircle
 10
137.8321178561429
 20
59.30885895586555
 30
0.0
 40
1.0
100
AcDbArc
 50
45.00000000000026
 51
90.0
1001
ACAD
1000
ASC_BOUNDS
1002
{
1070
    19
1005
0
1005
0
1002
}
  0
ARC
  5
2EEC
330
2E8F
100
AcDbEntity
  8
03-KONTUR1
 48
10.0
100
AcDbCircle
 10
150.9578528113704
 20
59.30885895586555
 30
0.0
 40
1.0
100
AcDbArc
 50
90.0
 51
134.9999999999997
1001
ACAD
1000
ASC_BOUNDS
1002
{
1070
    19
1005
0
1005
0
1002
}
  0
ARC
  5
2EED
330
2E8F
100
AcDbEntity
  8
03-KONTUR1
 48
10.0
100
AcDbCircle
 10
146.2438917806913
 20
60.95885895586542
 30
0.0
 40
3.5
100
AcDbArc
 50
270.0
 51
315.0
1001
ACAD
1000
ASC_BOUNDS
1002
{
1070
    19
1005
0
1005
0
1002
}
  0
LINE
  5
2EEE
330
2E8F
100
AcDbEntity
  8
03-KONTUR1
 48
10.0
100
AcDbLine
 10
148.7187655148442
 20
58.48398522171243
 30
0.0
 11
150.2507460301839
 21
60.01596573705211
 31
0.0
1001
ACAD
1000
ASC_BOUNDS
1002
{
1070
    19
1005
0
1005
0
1002
}
  0
LINE
  5
2EEF
330
2E8F
100
AcDbEntity
  8
03-KONTUR
100
AcDbLine
 10
164.052812494804
 20
61.70885895586484
 30
0.0
 11
164.0528124948039
 21
57.45885895586532
 31
0.0
1001
ACAD
1000
ASC_BOUNDS
1002
{
1070
    19
1005
0
1002
}
  0
ARC
  5
2EF0
330
2E8F
100
AcDbEntity
  8
03-KONTUR1
 48
10.0
100
AcDbCircle
 10
162.4433867173032
 20
60.95885895586542
 30
0.0
 40
3.5
100
AcDbArc
 50
225.0
 51
270.0
1001
ACAD
1000
ASC_BOUNDS
1002
{
1070
    19
1005
0
1005
0
1002
}
  0
ARC
  5
2EF1
330
2E8F
100
AcDbEntity
  8
03-KONTUR1
 48
10.0
100
AcDbCircle
 10
157.7294256866241
 20
59.30885895586555
 30
0.0
 40
1.0
100
AcDbArc
 50
45.00000000000026
 51
90.0
1001
ACAD
1000
ASC_BOUNDS
1002
{
1070
    19
1005
0
1005
0
1002
}
  0
LINE
  5
2EF2
330
2E8F
100
AcDbEntity
  8
03-KONTUR1
 48
10.0
100
AcDbLine
 10
159.9685129831503
 20
58.48398522171243
 30
0.0
 11
158.4365324678107
 21
60.01596573705211
 31
0.0
1001
ACAD
1000
ASC_BOUNDS
1002
{
1070
    19
1005
0
1005
0
1002
}
  0
LINE
  5
2EF3
330
2E8F
100
AcDbEntity
  8
03-KONTUR1
 48
10.0
100
AcDbLine
 10
164.0528124948043
 20
57.45885895586531
 30
0.0
 11
162.4433867173033
 21
57.45885895586531
 31
0.0
1001
ACAD
1000
ASC_BOUNDS
1002
{
1070
    19
1005
0
1005
0
1002
}
  0
ARC
  5
2EF4
330
2E8F
100
AcDbEntity
  8
08-GEWINDE
100
AcDbCircle
 10
244.9790274611867
 20
37.7088589558653
 30
0.0
 40
22.74999999999999
100
AcDbArc
 50
78.63096842503008
 51
351.3439396276622
  0
CIRCLE
  5
2EF5
330
2E8F
100
AcDbEntity
  8
03-KONTUR
100
AcDbCircle
 10
244.9790274611867
 20
37.7088589558653
 30
0.0
 40
19.75
  0
SOLID
  5
2EF6
330
2E8F
100
AcDbEntity
  8
09-BEMAßUNG
 62
     7
100
AcDbTrace
 10
229.2491809640127
 20
21.37360298626282
 30
0.0
 11
230.0872229932966
 21
24.7348059788166
 31
0.0
 12
232.5790891574828
 22
22.32843879574053
 32
0.0
 13
232.5790891574828
 23
22.32843879574053
 33
0.0
  0
LINE
  5
2EF7
330
2E8F
100
AcDbEntity
  8
09-BEMAßUNG
 62
     6
100
AcDbLine
 10
210.0787013973592
 20
1.72782396725347
 30
0.0
 11
229.3338210654541
 21
21.49201027680197
 31
0.0
  0
LWPOLYLINE
  5
2EF8
330
2E8F
100
AcDbEntity
  8
09-BEMAßUNG
 48
10.0
100
AcDbPolyline
 90
        4
 70
     1
 43
0.0
 10
204.1664960400328
 20
4.49615627379643
 10
198.5096417905404
 20
4.49615627379643
 10
198.5096417905404
 20
-1.160697975695995
 10
204.1664960400328
 20
-1.160697975695995
  0
LINE
  5
2EFE
330
2E8F
100
AcDbEntity
  8
09-BEMAßUNG
 62
     6
100
AcDbLine
 10
204.2349147824187
 20
1.72782396725347
 30
0.0
 11
210.0787013973592
 21
1.72782396725347
 31
0.0
  0
TEXT
  5
2EFF
330
2E8F
100
AcDbEntity
  8
09-BEMAßUNG
 48
10.0
100
AcDbText
 10
200.334336268138
 20
0.0380715778039189
 30
0.0
 40
3.5
  1
A
 41
0.8
 72
     4
 11
201.534336268138
 21
1.788071577803918
 31
0.0
100
AcDbText
  0
LINE
  5
2F00
330
2E8F
100
AcDbEntity
  8
0
  6
ByBlock
 62
     6
 48
10.0
100
AcDbLine
 10
294.5448740126336
 20
57.45885895586531
 30
0.0
 11
294.5448740126335
 21
94.51360380562341
 31
0.0
  0
MTEXT
  5
2F01
330
2E8F
100
AcDbEntity
  8
09-BEMAßUNG
 48
10.0
100
AcDbMText
 10
221.3469822372954
 20
89.00011738139014
 30
0.0
 40
3.5
 41
0.0
 71
     7
 72
     5
  1
{Zeichn.Nr./drawing 40L20-Zbk-0}
 73
     1
 44
1.0
  0
LINE
  5
2F02
330
2E8F
100
AcDbEntity
  8
2NNHHGF
  6
AUSGEZOGEN
 62
     1
100
AcDbLine
 10
317.4400930470461
 20
21.89904487968453
 30
0.0
 11
313.3147273929259
 21
21.89904487968453
 31
0.0
  0
LINE
  5
2F03
330
2E8F
100
AcDbEntity
  8
2NNHHGF
  6
AUSGEZOGEN
 62
     1
100
AcDbLine
 10
313.3147273929259
 20
21.89904487968453
 30
0.0
 11
315.5084299858058
 21
18.22300339699032
 31
0.0
  0
TEXT
  5
2F04
330
2E8F
100
AcDbEntity
  8
2NNHHGF
 62
     1
100
AcDbText
 10
305.7586241338055
 20
23.73362332916096
 30
0.0
 40
2.5
  1
Ra 12,5
 41
0.7291666666383891
 72
     5
 11
316.8697352444857
 21
23.73362332916096
 31
0.0
100
AcDbText
  0
LINE
  5
2F05
330
2E8F
100
AcDbEntity
  8
0
  6
ByBlock
 62
     6
100
AcDbLine
 10
245.0415274611867
 20
17.95885895586531
 30
0.0
 11
320.6297060825778
 21
17.95885895586531
 31
0.0
  0
MTEXT
  5
2F06
330
2E8F
100
AcDbEntity
  8
0
  6
ByBlock
 62
     1
100
AcDbMText
 10
298.5517918536853
 20
37.7088589558653
 30
0.0
 40
3.5
 41
0.0
 71
     5
 72
     5
  1
{\U+220539.50{\H2.450000;\S+0.25^  0.00;}}
 11
0.0
 21
1.0
 31
0.0
 73
     1
 44
1.0
  0
LINE
  5
2F07
330
2E8F
100
AcDbEntity
  8
0
  6
ByBlock
 62
     6
100
AcDbLine
 10
294.5448740126336
 20
53.45885895586531
 30
0.0
 11
294.5448740126336
 21
21.95885895586531
 31
0.0
  0
SOLID
  5
2F08
330
2E8F
100
AcDbEntity
  8
0
  6
ByBlock
 62
     6
100
AcDbTrace
 10
293.8782073459669
 20
21.95885895586531
 30
0.0
 11
295.2115406793002
 21
21.95885895586531
 31
0.0
 12
294.5448740126336
 22
17.95885895586531
 32
0.0
 13
294.5448740126336
 23
17.95885895586531
 33
0.0
  0
POINT
  5
2F09
330
2E8F
100
AcDbEntity
  8
DEFPOINTS
  6
ByBlock
 62
     0
100
AcDbPoint
 10
294.5448740126336
 20
17.95885895586531
 30
0.0
  0
MTEXT
  5
2F0A
330
2E8F
100
AcDbEntity
  8
0
  6
ByBlock
 62
     1
100
AcDbMText
 10
290.3241064662961
 20
37.7088589558653
 30
0.0
 40
3.5
 41
0.0
 71
     5
 72
     5
  1
{%%cKern}
 11
0.0000000000000002
 21
1.0
 31
0.0
 73
     1
 44
1.0
  0
LINE
  5
2F0B
330
2E8F
100
AcDbEntity
  8
0
  6
ByBlock
 62
     6
100
AcDbLine
 10
245.0415274611867
 20
57.45885895586531
 30
0.0
 11
297.1247421580432
 21
57.45885895586531
 31
0.0
  0
SOLID
  5
2F0C
330
2E8F
100
AcDbEntity
  8
0
  6
ByBlock
 62
     6
100
AcDbTrace
 10
293.8782073459669
 20
53.45885895586531
 30
0.0
 11
295.2115406793002
 21
53.45885895586531
 31
0.0
 12
294.5448740126336
 22
57.45885895586531
 32
0.0
 13
294.5448740126336
 23
57.45885895586531
 33
0.0
  0
LINE
  5
2F0D
330
2E8F
100
AcDbEntity
  8
2NNHHGF
  6
AUSGEZOGEN
 62
     1
100
AcDbLine
 10
315.5084299858058
 20
18.22300339699032
 30
0.0
 11
320.4681054132854
 21
27.66148828498933
 31
0.0
  0
LINE
  5
2F0E
330
2E8F
100
AcDbEntity
  8
0
  6
ByBlock
 62
     6
 48
10.0
100
AcDbLine
 10
220.0578486930772
 20
94.51360380562343
 30
0.0
 11
294.5448740126335
 21
94.51360380562341
 31
0.0
  0
MTEXT
  5
2F0F
330
2E8F
100
AcDbEntity
  8
09-BEMAßUNG
 48
10.0
100
AcDbMText
 10
221.3469822372954
 20
106.0961547203554
 30
0.0
 40
3.5
 41
0.0
 71
     7
 72
     5
  1
{Gewindeform, linksgängig}\P{nach Zeichnung}
 73
     1
 44
1.0
  0
MTEXT
  5
2F10
330
2E8F
100
AcDbEntity
  8
09-BEMAßUNG
 48
10.0
100
AcDbMText
 10
221.3469822372954
 20
95.23182581919829
 30
0.0
 40
3.5
 41
0.0
 71
     7
 72
     5
  1
{thread form, lefthanded}\P{acc. drawing data}
 73
     1
 44
1.0
  0
ENDBLK
  5
2F12
330
2E8F
100
AcDbEntity
  8
0
100
AcDbBlockEnd
  0
BLOCK
  5
303B
330
302F
100
AcDbEntity
  8
0
100
AcDbBlockBegin
  2
A$C40F4
 70
     0
 10
0.0
 20
0.0
 30
0.0
  3
A$C40F4
  1

  0
TEXT
  5
3030
330
302F
100
AcDbEntity
  8
02-SCHRIFTKOPF
 62
     6
 48
1.5
100
AcDbText
 10
-0.194464783599642
 20
15.87031670334046
 30
0.0
 40
1.9
  1
a
 41
0.75
 11
-0.194464783599642
 21
15.23698337000712
 31
0.0
100
AcDbText
 73
     1
  0
TEXT
  5
3031
330
302F
100
AcDbEntity
  8
02-SCHRIFTKOPF
 62
     6
 48
1.5
100
AcDbText
 10
8.439455877145064
 20
15.87031670334046
 30
0.0
 40
1.9
  1
18.05.01
 41
0.75
 11
8.439455877145064
 21
15.23698337000712
 31
0.0
100
AcDbText
 73
     1
  0
TEXT
  5
3032
330
302F
100
AcDbEntity
  8
02-SCHRIFTKOPF
 62
     6
 48
1.5
100
AcDbText
 10
25.65096479999942
 20
15.87031670334046
 30
0.0
 40
1.9
  1
Stü
 41
0.75
 11
25.65096479999942
 21
15.23698337000712
 31
0.0
100
AcDbText
 73
     1
  0
TEXT
  5
3033
330
302F
100
AcDbEntity
  8
02-SCHRIFTKOPF
 62
     6
 48
1.5
100
AcDbText
 10
49.53140610487844
 20
15.87031670334046
 30
0.0
 40
1.9
  1
Material geändert
 41
0.75
 11
49.53140610487844
 21
15.23698337000712
 31
0.0
100
AcDbText
 73
     1
  0
TEXT
  5
3034
330
302F
100
AcDbEntity
  8
02-SCHRIFTKOPF
 48
1.5
100
AcDbText
 10
67.34514891691958
 20
0.1831016710788162
 30
0.0
 40
3.5
  1
S355J2G3
 41
0.8
 72
     1
 11
77.81181558358628
 21
0.1831016710788162
 31
0.0
100
AcDbText
  0
LWPOLYLINE
  5
3035
330
302F
100
AcDbEntity
  8
07-BRUCHLINIE
100
AcDbPolyline
 90
        3
 70
     1
 43
0.0
 10
95.84187918682596
 20
1.649085301759441
 10
92.96005082887086
 20
6.640558436430524
 10
90.07822247091576
 20
1.649085301759441
  0
TEXT
  5
303A
330
302F
100
AcDbEntity
  8
02-SCHRIFTKOPF
 48
1.5
100
AcDbText
 10
91.62130130972263
 20
2.203693427833968
 30
0.0
 40
3.5
  1
a
 41
0.8
 72
     1
 11
92.82130130972268
 21
2.203693427833968
 31
0.0
100
AcDbText
  0
ENDBLK
  5
303C
330
302F
100
AcDbEntity
  8
0
100
AcDbBlockEnd
  0
BLOCK
  5
304E
330
3049
100
AcDbEntity
  8
0
100
AcDbBlockBegin
  2
A
 70
     0
 10
0.0
 20
0.0
 30
0.0
  3
A
  1

  0
LINE
  5
304A
330
3049
100
AcDbEntity
  8
09-INDIZEES
 62
     6
 48
10.0
100
AcDbLine
 10
3.454424660843073
 20
0.0
 30
0.0
 11
-3.454424660843187
 21
0.0
 31
0.0
  0
LINE
  5
304B
330
3049
100
AcDbEntity
  8
09-INDIZEES
 62
     6
 48
10.0
100
AcDbLine
 10
3.454424660843073
 20
0.0
 30
0.0
 11
-0.0000000000002274
 21
6.913801590111916
 31
0.0
  0
LINE
  5
304C
330
3049
100
AcDbEntity
  8
09-INDIZEES
 62
     6
 48
10.0
100
AcDbLine
 10
-0.0000000000002274
 20
6.913801590111916
 30
0.0
 11
-3.454424660843187
 21
0.0
 31
0.0
  0
MTEXT
  5
304D
330
3049
100
AcDbEntity
  8
09-INDIZEES
  6
ByBlock
 62
     1
 48
10.0
100
AcDbMText
 10
-0.1249700480950651
 20
2.9110834848791
 30
0.0
 40
3.75
 41
0.0
 71
     5
 72
     5
  1
{a}
 73
     1
 44
1.0
  0
ENDBLK
  5
304F
330
3049
100
AcDbEntity
  8
0
100
AcDbBlockEnd
  0
BLOCK
  5
3076
330
305D
100
AcDbEntity
  8
0
100
AcDbBlockBegin
  2
STABMATERIAL
 70
     0
 10
0.0
 20
0.0
 30
0.0
  3
STABMATERIAL
  1

  0
TEXT
  5
305E
330
305D
100
AcDbEntity
  8
10-TEXT25
 48
10.0
100
AcDbText
 10
47.78842501891904
 20
53.64560262383786
 30
0.0
 40
2.5
  1
bzw. nach Zeichnungsangabe
 41
0.8
 11
47.78842501891904
 21
52.81226929050453
 31
0.0
100
AcDbText
 73
     1
  0
TEXT
  5
305F
330
305D
100
AcDbEntity
  8
10-TEXT25
 48
10.0
100
AcDbText
 10
47.78842501891904
 20
61.6781672521294
 30
0.0
 40
2.5
  1
nach DIN ISO 2768-1 Klasse c
 41
0.8
 11
47.78842501891904
 21
60.84483391879607
 31
0.0
100
AcDbText
 73
     1
  0
TEXT
  5
3060
330
305D
100
AcDbEntity
  8
10-TEXT25
 48
10.0
100
AcDbText
 10
56.8713709220317
 20
57.60953260209401
 30
0.0
 40
2.5
  1
DIN ISO 2768-2 Klasse L
 41
0.8
 11
56.8713709220317
 21
56.77619926876068
 31
0.0
100
AcDbText
 73
     1
  0
TEXT
  5
3061
330
305D
100
AcDbEntity
  8
10-TEXT25
 48
10.0
100
AcDbText
 10
61.05293601863934
 20
26.09086299059796
 30
0.0
 40
2.5
  1
DIN ISO 2768-2 class L
 41
0.8
 11
61.05293601863934
 21
25.25752965726463
 31
0.0
100
AcDbText
 73
     1
  0
TEXT
  5
3062
330
305D
100
AcDbEntity
  8
10-TEXT25
 48
10.0
100
AcDbText
 10
47.91879578757391
 20
30.00682809499536
 30
0.0
 40
2.5
  1
acc. to DIN ISO 2768-1 class c
 41
0.8
 11
47.91879578757391
 21
29.17349476166203
 31
0.0
100
AcDbText
 73
     1
  0
TEXT
  5
3063
330
305D
100
AcDbEntity
  8
10-TEXT25
 48
10.0
100
AcDbText
 10
47.91879722290457
 20
22.07862588288238
 30
0.0
 40
2.5
  1
and/or acc. to drawing data
 41
0.8
 11
47.91879722290457
 21
21.24529254954905
 31
0.0
100
AcDbText
 73
     1
  0
TEXT
  5
3064
330
305D
100
AcDbEntity
  8
10-TEXT25
 48
10.0
100
AcDbText
 10
47.78905873938913
 20
17.90019502925197
 30
0.0
 40
2.5
  1
R 2,0
 41
0.8
 11
47.78905873938913
 21
17.06686169591864
 31
0.0
100
AcDbText
 73
     1
  0
TEXT
  5
3065
330
305D
100
AcDbEntity
  8
10-TEXT25
 48
10.0
100
AcDbText
 10
4.625718191550845
 20
17.69524353876234
 30
0.0
 40
2.5
  1
not dimensioned radii:
 41
0.8
 11
4.625718191550845
 21
16.86191020542901
 31
0.0
100
AcDbText
 73
     1
  0
TEXT
  5
3066
330
305D
100
AcDbEntity
  8
10-TEXT25
 48
10.0
100
AcDbText
 10
4.869549125170237
 20
9.888749680664622
 30
0.0
 40
2.5
  1
thread:
 41
0.8
 11
4.869549125170237
 21
9.055416347331288
 31
0.0
100
AcDbText
 73
     1
  0
TEXT
  5
3067
330
305D
100
AcDbEntity
  8
10-TEXT25
 48
10.0
100
AcDbText
 10
4.737540972546526
 20
5.831646974565463
 30
0.0
 40
2.5
  1
surface:
 41
0.8
 11
4.737540972546526
 21
4.99831364123213
 31
0.0
100
AcDbText
 73
     1
  0
TEXT
  5
3068
330
305D
100
AcDbEntity
  8
10-TEXT25
 48
10.0
100
AcDbText
 10
4.713723626634532
 20
13.97312144838527
 30
0.0
 40
2.5
  1
outer edges:
 41
0.8
 11
4.713723626634532
 21
13.13978811505194
 31
0.0
100
AcDbText
 73
     1
  0
TEXT
  5
3069
330
305D
100
AcDbEntity
  8
10-TEXT25
 48
10.0
100
AcDbText
 10
47.93145501451919
 20
9.888749680664622
 30
0.0
 40
2.5
  1
deburred
 41
0.8
 11
47.93145501451919
 21
9.055416347331288
 31
0.0
100
AcDbText
 73
     1
  0
TEXT
  5
306A
330
305D
100
AcDbEntity
  8
10-TEXT25
 48
10.0
100
AcDbText
 10
47.7890587393889
 20
5.831646974565463
 30
0.0
 40
2.5
  1
rough
 41
0.8
 11
47.7890587393889
 21
4.99831364123213
 31
0.0
100
AcDbText
 73
     1
  0
TEXT
  5
306B
330
305D
100
AcDbEntity
  8
10-TEXT25
 48
10.0
100
AcDbText
 10
47.93145644984986
 20
14.17807293887491
 30
0.0
 40
2.5
  1
deburred
 41
0.8
 11
47.93145644984986
 21
13.34473960554157
 31
0.0
100
AcDbText
 73
     1
  0
TEXT
  5
306C
330
305D
100
AcDbEntity
  8
10-TEXT25
 48
10.0
100
AcDbText
 10
4.793819492296506
 20
41.16075011904952
 30
0.0
 40
2.5
  1
Gewindeanfang/-ende:
 41
0.8
 11
4.793819492296506
 21
40.32741678571619
 31
0.0
100
AcDbText
 73
     1
  0
TEXT
  5
306D
330
305D
100
AcDbEntity
  8
10-TEXT25
 48
10.0
100
AcDbText
 10
4.707255205368028
 20
49.13076651838352
 30
0.0
 40
2.5
  1
nicht vermaßte Radien:
 41
0.8
 11
4.707255205368028
 21
48.29743318505018
 31
0.0
100
AcDbText
 73
     1
  0
TEXT
  5
306E
330
305D
100
AcDbEntity
  8
10-TEXT25
 48
10.0
100
AcDbText
 10
4.667334036968782
 20
30.00682809499536
 30
0.0
 40
2.5
  1
manufacturing tolerances:
 41
0.8
 11
4.667334036968782
 21
29.17349476166203
 31
0.0
100
AcDbText
 73
     1
  0
TEXT
  5
306F
330
305D
100
AcDbEntity
  8
10-TEXT25
 48
10.0
100
AcDbText
 10
5.159512333665816
 20
45.13293175443023
 30
0.0
 40
2.5
  1
Außenkanten:
 41
0.8
 11
5.159512333665816
 21
44.2995984210969
 31
0.0
100
AcDbText
 73
     1
  0
TEXT
  5
3070
330
305D
100
AcDbEntity
  8
10-TEXT25
 48
10.0
100
AcDbText
 10
4.793819492296506
 20
37.31971617095402
 30
0.0
 40
2.5
  1
Oberfläche:
 41
0.8
 11
4.793819492296506
 21
36.48638283762068
 31
0.0
100
AcDbText
 73
     1
  0
TEXT
  5
3071
330
305D
100
AcDbEntity
  8
10-TEXT25
 48
10.0
100
AcDbText
 10
47.94348052099439
 20
45.33788324491987
 30
0.0
 40
2.5
  1
entgratet
 41
0.8
 11
47.94348052099439
 21
44.50454991158653
 31
0.0
100
AcDbText
 73
     1
  0
TEXT
  5
3072
330
305D
100
AcDbEntity
  8
10-TEXT25
 48
10.0
100
AcDbText
 10
47.94348052099439
 20
41.16075011904952
 30
0.0
 40
2.5
  1
entgratet
 41
0.8
 11
47.94348052099439
 21
40.32741678571619
 31
0.0
100
AcDbText
 73
     1
  0
TEXT
  5
3073
330
305D
100
AcDbEntity
  8
10-TEXT25
 48
10.0
100
AcDbText
 10
47.80108424586432
 20
37.31971617095402
 30
0.0
 40
2.5
  1
roh
 41
0.8
 11
47.80108424586432
 21
36.48638283762068
 31
0.0
100
AcDbText
 73
     1
  0
TEXT
  5
3074
330
305D
100
AcDbEntity
  8
10-TEXT25
 48
10.0
100
AcDbText
 10
47.80108281053367
 20
49.33571800887315
 30
0.0
 40
2.5
  1
R 2,0
 41
0.8
 11
47.80108281053367
 21
48.50238467553982
 31
0.0
100
AcDbText
 73
     1
  0
TEXT
  5
3075
330
305D
100
AcDbEntity
  8
10-TEXT25
 48
10.0
100
AcDbText
 10
4.604637967845519
 20
61.6781672521294
 30
0.0
 40
2.5
  1
Fertigungstoleranzen:
 41
0.8
 11
4.604637967845519
 21
60.84483391879607
 31
0.0
100
AcDbText
 73
     1
  0
ENDBLK
  5
3077
330
305D
100
AcDbEntity
  8
0
100
AcDbBlockEnd
  0
BLOCK
  5
307E
330
3078
100
AcDbEntity
  8
0
100
AcDbBlockBegin
  2
S355J2G3GEZOGEN
 70
     0
 10
0.0
 20
0.0
 30
0.0
  3
S355J2G3GEZOGEN
  1

  0
TEXT
  5
3079
330
3078
100
AcDbEntity
  8
02-SCHRIFTKOPF
 48
1.5
100
AcDbText
 10
-0.3417967410029519
 20
11.34673648351842
 30
0.0
 40
3.5
  1
Material: S355J2G3 gezogen nach DIN EN 10 277-2
 41
0.8
 72
     1
 11
58.19153659233041
 21
11.34673648351842
 31
0.0
100
AcDbText
  0
TEXT
  5
307A
330
3078
100
AcDbEntity
  8
10-TEXT25
 48
10.0
100
AcDbText
 10
45.43108616084293
 20
4.352570611541395
 30
0.0
 40
3.5
  1
, entspricht Zugfestigkeit >580 N/mm
 41
0.8
100
AcDbText
  0
TEXT
  5
307B
330
3078
100
AcDbEntity
  8
10-TEXT25
 48
10.0
100
AcDbText
 10
-0.5066108293111781
 20
4.362011767019248
 30
-3.51
 40
3.5
  1
HBW 10/3000
 41
0.8
 72
     2
 11
29.76005583735548
 21
3.195345100352582
 31
-3.51
100
AcDbText
 73
     1
  0
TEXT
  5
307C
330
3078
100
AcDbEntity
  8
10-TEXT25
 48
10.0
100
AcDbText
 10
32.91089453441129
 20
4.35468266367061
 30
-3.51
 40
3.5
  1
>172
 41
0.8
 72
     2
 11
43.71089453441129
 21
3.188015997003944
 31
-3.51
100
AcDbText
 73
     1
  0
TEXT
  5
307D
330
3078
100
AcDbEntity
  8
10-TEXT25
 48
10.0
100
AcDbText
 10
130.5918091579152
 20
7.107591654000756
 30
0.0
 40
2.0
  1
2
 41
0.8
100
AcDbText
  0
ENDBLK
  5
307F
330
3078
100
AcDbEntity
  8
0
100
AcDbBlockEnd
  0
BLOCK
  5
308A
330
3080
100
AcDbEntity
  8
0
100
AcDbBlockBegin
  2
Adresse
 70
     0
 10
0.0
 20
0.0
 30
0.0
  3
Adresse
  1

  0
TEXT
  5
3081
330
3080
100
AcDbEntity
  8
02-SCHRIFTKOPF
 62
     6
 48
1.5
100
AcDbText
 10
822.5884360574356
 20
-74.21208536970673
 30
0.0
 40
1.8
  1
e-mail
100
AcDbText
  0
TEXT
  5
3082
330
3080
100
AcDbEntity
  8
02-SCHRIFTKOPF
 62
     6
 48
1.5
100
AcDbText
 10
822.5565317960089
 20
-70.4679584817205
 30
0.0
 40
1.8
  1
Fax.
100
AcDbText
  0
TEXT
  5
3083
330
3080
100
AcDbEntity
  8
02-SCHRIFTKOPF
 62
     6
 48
1.5
100
AcDbText
 10
822.5884360574356
 20
-65.89663912540763
 30
0.0
 40
1.8
  1
Tel.
100
AcDbText
  0
TEXT
  5
3084
330
3080
100
AcDbEntity
  8
02-SCHRIFTKOPF
 62
     6
 48
1.5
100
AcDbText
 10
822.5965191984011
 20
-58.19448572491032
 30
0.0
 40
2.0
  1
Stahlwerk Annahütte Systemtechnik GmbH
 41
0.7
100
AcDbText
  0
TEXT
  5
3085
330
3080
100
AcDbEntity
  8
02-SCHRIFTKOPF
 62
     6
 48
1.5
100
AcDbText
 10
822.7422992237942
 20
-61.74317405985309
 30
0.0
 40
1.8
  1
D-83404 Hammerau
 41
0.8
100
AcDbText
  0
TEXT
  5
3086
330
3080
100
AcDbEntity
  8
02-SCHRIFTKOPF
 62
     6
 48
1.5
100
AcDbText
 10
836.2715555495903
 20
-65.89663912540763
 30
0.0
 40
1.8
  1
+49/(0)86 54-487-0
 41
0.9
100
AcDbText
  0
TEXT
  5
3087
330
3080
100
AcDbEntity
  8
02-SCHRIFTKOPF
 62
     6
 48
1.5
100
AcDbText
 10
836.2777794449742
 20
-70.31381295013133
 30
0.0
 40
1.8
  1
+49/(0)86 54-487-960
 41
0.9
100
AcDbText
  0
TEXT
  5
3088
330
3080
100
AcDbEntity
  8
02-SCHRIFTKOPF
 62
     6
 48
1.5
100
AcDbText
 10
835.4801734066787
 20
-74.21208536970673
 30
0.0
 40
1.8
  1
stahlwerk@annahuette.com
 41
0.9
100
AcDbText
  0
TEXT
  5
3089
330
3080
100
AcDbEntity
  8
02-SCHRIFTKOPF
 62
     6
 48
1.5
100
AcDbText
 10
835.4801734066787
 20
-77.43336069685844
 30
0.0
 40
1.8
  1
www.annahuette.com
 41
0.9
100
AcDbText
  0
ENDBLK
  5
308B
330
3080
100
AcDbEntity
  8
0
100
AcDbBlockEnd
  0
BLOCK
  5
309F
330
309A
100
AcDbEntity
  8
0
100
AcDbBlockBegin
  2
B
 70
     0
 10
0.0
 20
0.0
 30
0.0
  3
B
  1

  0
MTEXT
  5
309B
330
309A
100
AcDbEntity
  8
09-INDIZEES
  6
ByBlock
 62
     1
 48
10.0
100
AcDbMText
 10
0.4013489530659627
 20
2.9110834848791
 30
0.0
 40
3.75
 41
0.0
 71
     5
 72
     5
  1
{b}
 73
     1
 44
1.0
  0
LINE
  5
309C
330
309A
100
AcDbEntity
  8
09-INDIZEES
 62
     6
 48
10.0
100
AcDbLine
 10
-0.0000000000002274
 20
6.913801590111916
 30
0.0
 11
-3.454424660843187
 21
0.0
 31
0.0
  0
LINE
  5
309D
330
309A
100
AcDbEntity
  8
09-INDIZEES
 62
     6
 48
10.0
100
AcDbLine
 10
3.454424660843073
 20
0.0
 30
0.0
 11
-0.0000000000002274
 21
6.913801590111916
 31
0.0
  0
LINE
  5
309E
330
309A
100
AcDbEntity
  8
09-INDIZEES
 62
     6
 48
10.0
100
AcDbLine
 10
3.454424660843073
 20
0.0
 30
0.0
 11
-3.454424660843187
 21
0.0
 31
0.0
  0
ENDBLK
  5
30A0
330
309A
100
AcDbEntity
  8
0
100
AcDbBlockEnd
  0
BLOCK
  5
30E1
330
30DB
100
AcDbEntity
  8
0
100
AcDbBlockBegin
  2
S355J2G3 (rund)
 70
     0
 10
0.0
 20
0.0
 30
0.0
  3
S355J2G3 (rund)
  1

  0
TEXT
  5
30DC
330
30DB
100
AcDbEntity
  8
10-TEXT25
 48
10.0
100
AcDbText
 10
873.7581837082073
 20
109.4547821001591
 30
-3.51
 40
2.5
  1
2
 41
0.8
 72
     2
 11
875.3772313272548
 21
108.6214487668257
 31
-3.51
100
AcDbText
 73
     1
  0
TEXT
  5
30DD
330
30DB
100
AcDbEntity
  8
10-TEXT25
 48
10.0
100
AcDbText
 10
734.4380516244398
 20
106.3514502981367
 30
-3.51
 40
3.5
  1
Material: S355J2G3 nach DIN EN 10025 mit Re > 400 N/mm
 41
0.8
 72
     2
 11
872.8380516244399
 21
105.18478363147
 31
-3.51
100
AcDbText
 73
     1
  0
TEXT
  5
30DE
330
30DB
100
AcDbEntity
  8
10-TEXT25
 48
10.0
100
AcDbText
 10
734.3516628088126
 20
99.20361530629968
 30
-3.51
 40
3.5
  1
HBW 10/3000 145-185, entspricht Zugfestigkeit von 490 bis 630 N/mm
 41
0.8
 72
     2
 11
897.8183294754794
 21
98.03694863963301
 31
-3.51
100
AcDbText
 73
     1
  0
TEXT
  5
30DF
330
30DB
100
AcDbEntity
  8
10-TEXT25
 48
10.0
100
AcDbText
 10
898.6488242775438
 20
103.0373866220136
 30
-3.51
 40
2.5
  1
2
 41
0.8
 72
     2
 11
900.2678718965913
 21
102.2040532886803
 31
-3.51
100
AcDbText
 73
     1
  0
LINE
  5
30E0
330
30DB
100
AcDbEntity
  8
10-TEXT25
 48
10.0
100
AcDbLine
 10
843.0817321613778
 20
105.2095752755163
 30
0.0
 11
845.5188625378703
 21
105.2095752755163
 31
0.0
  0
ENDBLK
  5
30E2
330
30DB
100
AcDbEntity
  8
0
100
AcDbBlockEnd
  0
ENDSEC
  0
SECTION
  2
ENTITIES
  0
LINE
  5
26A9
330
1503
100
AcDbEntity
  8
03-KONTUR
100
AcDbLine
 10
699.3751044029939
 20
60.65892972983471
 30
0.0
 11
699.3751044029939
 21
56.40892972983568
 31
0.0
1001
ACAD
1000
ASC_BOUNDS
1002
{
1070
    19
1005
2FE8
1002
}
  0
LINE
  5
2CFA
330
1503
100
AcDbEntity
  8
03-KONTUR
100
AcDbLine
 10
697.3751044029935
 20
10.65892972983567
 30
0.0
 11
699.3751044029934
 21
12.65892972983617
 31
0.0
1001
ACAD
1000
ASC_BOUNDS
1002
{
1070
    19
1002
}
  0
LINE
  5
2DB1
330
1503
100
AcDbEntity
  8
03-KONTUR
100
AcDbLine
 10
697.3751044029935
 20
10.65892972983567
 30
0.0
 11
697.3751044029937
 21
36.65892972983567
 31
0.0
  0
LINE
  5
2DCB
330
1503
100
AcDbEntity
  8
03-KONTUR
100
AcDbLine
 10
581.3751044029935
 20
36.65892972983567
 30
0.0
 11
581.3751044029932
 21
10.65892972983566
 31
0.0
  0
LINE
  5
2DCD
330
1503
100
AcDbEntity
  8
03-KONTUR
100
AcDbLine
 10
581.3751044029932
 20
10.65892972983567
 30
0.0
 11
579.3751044029935
 21
12.65892972983557
 31
0.0
1001
ACAD
1000
ASC_BOUNDS
1002
{
1070
    19
1002
}
  0
ARC
  5
2E11
330
1503
100
AcDbEntity
  8
03-KONTUR
100
AcDbCircle
 10
639.3751044029933
 20
36.65892972983567
 30
0.0
 40
5.0
100
AcDbArc
 50
180.0
 51
0.0
  0
LINE
  5
2F1A
330
1503
100
AcDbEntity
  8
03-KONTUR
100
AcDbLine
 10
697.3751044029935
 20
62.65892972983566
 30
0.0
 11
581.375104402993
 21
62.65892972983569
 31
0.0
1001
ACAD
1000
ASC_BOUNDS
1002
{
1070
    19
1005
2FE8
1002
}
  0
LINE
  5
2F1B
330
1503
100
AcDbEntity
  8
03-KONTUR
100
AcDbLine
 10
697.3751044029935
 20
10.65892972983567
 30
0.0
 11
581.3751044029932
 21
10.65892972983567
 31
0.0
  0
LINE
  5
2F1C
330
1503
100
AcDbEntity
  8
03-KONTUR
100
AcDbLine
 10
579.375104402994
 20
60.65892972983632
 30
0.0
 11
579.375104402994
 21
56.40892972983568
 31
0.0
1001
ACAD
1000
ASC_BOUNDS
1002
{
1070
    19
1005
2FE8
1002
}
  0
LINE
  5
2F1D
330
1503
100
AcDbEntity
  8
03-KONTUR
100
AcDbLine
 10
581.375104402993
 20
62.65892972983569
 30
0.0
 11
579.375104402994
 21
60.65892972983632
 31
0.0
1001
ACAD
1000
ASC_BOUNDS
1002
{
1070
    19
1005
2FE8
1002
}
  0
LINE
  5
2F1E
330
1503
100
AcDbEntity
  8
03-KONTUR
100
AcDbLine
 10
697.3751044029935
 20
62.65892972983566
 30
0.0
 11
699.3751044029939
 21
60.65892972983471
 31
0.0
1001
ACAD
1000
ASC_BOUNDS
1002
{
1070
    19
1005
2FE8
1002
}
  0
LINE
  5
2FC4
330
1503
100
AcDbEntity
  8
03-KONTUR
100
AcDbLine
 10
579.375104402994
 20
56.40892972983568
 30
0.0
 11
579.3751044029935
 21
12.65892972983557
 31
0.0
  0
LINE
  5
2FC5
330
1503
100
AcDbEntity
  8
03-KONTUR
100
AcDbLine
 10
699.3751044029936
 20
56.40892972983568
 30
0.0
 11
699.3751044029934
 21
12.65892972983617
 31
0.0
  0
LINE
  5
310E
330
1503
100
AcDbEntity
  8
03-KONTUR
100
AcDbLine
 10
697.3751044029935
 20
62.65892972983568
 30
0.0
 11
697.3751044029937
 21
36.65892972983567
 31
0.0
  0
ARC
  5
310F
330
1503
100
AcDbEntity
  8
03-KONTUR
100
AcDbCircle
 10
639.3751044029933
 20
36.65892972983567
 30
0.0
 40
5.0
100
AcDbArc
 50
0.0
 51
180.0
  0
LINE
  5
3110
330
1503
100
AcDbEntity
  8
03-KONTUR
100
AcDbLine
 10
581.3751044029935
 20
36.65892972983567
 30
0.0
 11
581.3751044029932
 21
62.65892972983569
 31
0.0
  0
ENDSEC
  0
SECTION
  2
OBJECTS
  0
DICTIONARY
  5
14F7
330
0
100
AcDbDictionary
281
     1
  3
ACAD_GROUP
350
14F8
  3
ACAD_LAYOUT
350
3042
  3
ACAD_MLINESTYLE
350
14F9
  3
ACAD_PLOTSETTINGS
350
3043
  3
ACAD_PLOTSTYLENAME
350
3040
  0
DICTIONARY
  5
14F8
102
{ACAD_REACTORS
330
14F7
102
}
330
14F7
100
AcDbDictionary
281
     1
  0
DICTIONARY
  5
3042
102
{ACAD_REACTORS
330
14F7
102
}
330
14F7
100
AcDbDictionary
281
     1
  3
Layout1
350
3045
  3
Model
350
3044
  0
DICTIONARY
  5
14F9
102
{ACAD_REACTORS
330
14F7
102
}
330
14F7
100
AcDbDictionary
281
     1
  3
STANDARD
350
1506
  0
DICTIONARY
  5
3043
102
{ACAD_REACTORS
330
14F7
102
}
330
14F7
100
AcDbDictionary
281
     1
  0
ACDBDICTIONARYWDFLT
  5
3040
102
{ACAD_REACTORS
330
14F7
102
}
330
14F7
100
AcDbDictionary
281
     1
  3
Normal
350
3041
100
AcDbDictionaryWithDefault
340
3041
  0
LAYOUT
  5
3045
102
{ACAD_REACTORS
330
3042
102
}
330
3042
100
AcDbPlotSettings
  1

  2
Kyocera Mita FS-1000+
  4

  6

 40
0.0
 41
0.0
 42
0.0
 43
0.0
 44
0.0
 45
0.0
 46
0.0
 47
0.0
 48
0.0
 49
0.0
140
0.0
141
0.0
142
1.0
143
1.0
 70
   688
 72
     0
 73
     0
 74
     5
  7

 75
    16
147
1.0
148
0.0
149
0.0
100
AcDbLayout
  1
Layout1
 70
     1
 71
     1
 10
0.0
 20
0.0
 11
12.0
 21
9.0
 12
0.0
 22
0.0
 32
0.0
 14
1.000000000000000E+20
 24
1.000000000000000E+20
 34
1.000000000000000E+20
 15
-1.000000000000000E+20
 25
-1.000000000000000E+20
 35
-1.000000000000000E+20
146
0.0
 13
0.0
 23
0.0
 33
0.0
 16
1.0
 26
0.0
 36
0.0
 17
0.0
 27
1.0
 37
0.0
 76
     0
330
1500
  0
LAYOUT
  5
3044
102
{ACAD_REACTORS
330
3042
102
}
330
3042
100
AcDbPlotSettings
  1

  2
Kyocera Mita FS-1800
  4
A4
  6

 40
6.805083274841308
 41
5.027085304260253
 42
6.805084228515625
 43
5.027069091796875
 44
209.9733276367187
 45
296.9259948730469
 46
0.0
 47
8.96
 48
543.2162585118873
 49
-136.9929676107041
140
920.5562585118872
141
138.507032389296
142
1.0
143
1.403012661911184
 70
 11956
 72
     1
 73
     1
 74
     4
  7

 75
     0
147
0.7127519424078466
148
-543.2162585118873
149
136.9929676107041
100
AcDbLayout
  1
Model
 70
     1
 71
     0
 10
0.0
 20
0.0
 11
12.0
 21
9.0
 12
0.0
 22
0.0
 32
0.0
 14
0.0
 24
0.0
 34
0.0
 15
0.0
 25
0.0
 35
0.0
146
0.0
 13
0.0
 23
0.0
 33
0.0
 16
1.0
 26
0.0
 36
0.0
 17
0.0
 27
1.0
 37
0.0
 76
     0
330
1503
  0
MLINESTYLE
  5
1506
102
{ACAD_REACTORS
330
14F9
102
}
330
14F9
100
AcDbMlineStyle
  2
STANDARD
 70
     0
  3

 62
     0
 51
90.0
 52
90.0
 71
     2
 49
0.5
 62
   256
  6
BYLAYER
 49
-0.5
 62
   256
  6
BYLAYER
  0
ACDBPLACEHOLDER
  5
3041
102
{ACAD_REACTORS
330
3040
102
}
330
3040
  0
ENDSEC
  0
EOF
